ISO-10303-21;
HEADER;
/* Generated by software containing ST-Developer
 * from STEP Tools, Inc. (www.steptools.com) 
 */
/* OPTION: strings as raw bytes, not using required /X/ escapes */

FILE_DESCRIPTION(
/* description */ ('Unknown'),
/* implementation_level */ '2;1');

FILE_NAME(
/* name */ '7488915724',
/* time_stamp */ '2020-03-06T11:47:31+01:00',
/* author */ ('Unknown'),
/* organization */ ('Unknown'),
/* preprocessor_version */ 'ST-DEVELOPER v16.7',
/* originating_system */ 'DEX',
/* authorisation */ $);

FILE_SCHEMA (('AUTOMOTIVE_DESIGN {1 0 10303 214 3 1 1}'));
ENDSEC;

DATA;
#10=PROPERTY_DEFINITION_REPRESENTATION(#14,#12);
#11=PROPERTY_DEFINITION_REPRESENTATION(#15,#13);
#12=REPRESENTATION('',(#16),#736);
#13=REPRESENTATION('',(#17),#736);
#14=PROPERTY_DEFINITION('pmi validation property','',#741);
#15=PROPERTY_DEFINITION('pmi validation property','',#741);
#16=VALUE_REPRESENTATION_ITEM('number of annotations',COUNT_MEASURE(0.));
#17=VALUE_REPRESENTATION_ITEM('number of views',COUNT_MEASURE(0.));
#18=SHAPE_REPRESENTATION_RELATIONSHIP('','',#522,#19);
#19=ADVANCED_BREP_SHAPE_REPRESENTATION('',(#520),#736);
#20=ORIENTED_EDGE('',*,*,#116,.F.);
#21=ORIENTED_EDGE('',*,*,#117,.T.);
#22=ORIENTED_EDGE('',*,*,#118,.F.);
#23=ORIENTED_EDGE('',*,*,#119,.T.);
#24=ORIENTED_EDGE('',*,*,#120,.T.);
#25=ORIENTED_EDGE('',*,*,#121,.T.);
#26=ORIENTED_EDGE('',*,*,#122,.F.);
#27=ORIENTED_EDGE('',*,*,#123,.F.);
#28=ORIENTED_EDGE('',*,*,#124,.T.);
#29=ORIENTED_EDGE('',*,*,#125,.T.);
#30=ORIENTED_EDGE('',*,*,#126,.F.);
#31=ORIENTED_EDGE('',*,*,#127,.T.);
#32=ORIENTED_EDGE('',*,*,#128,.F.);
#33=ORIENTED_EDGE('',*,*,#129,.F.);
#34=ORIENTED_EDGE('',*,*,#130,.F.);
#35=ORIENTED_EDGE('',*,*,#122,.T.);
#36=ORIENTED_EDGE('',*,*,#131,.T.);
#37=ORIENTED_EDGE('',*,*,#126,.T.);
#38=ORIENTED_EDGE('',*,*,#132,.T.);
#39=ORIENTED_EDGE('',*,*,#118,.T.);
#40=ORIENTED_EDGE('',*,*,#120,.F.);
#41=ORIENTED_EDGE('',*,*,#133,.T.);
#42=ORIENTED_EDGE('',*,*,#124,.F.);
#43=ORIENTED_EDGE('',*,*,#134,.T.);
#44=ORIENTED_EDGE('',*,*,#135,.T.);
#45=ORIENTED_EDGE('',*,*,#136,.F.);
#46=ORIENTED_EDGE('',*,*,#137,.F.);
#47=ORIENTED_EDGE('',*,*,#138,.T.);
#48=ORIENTED_EDGE('',*,*,#139,.T.);
#49=ORIENTED_EDGE('',*,*,#138,.F.);
#50=ORIENTED_EDGE('',*,*,#140,.F.);
#51=ORIENTED_EDGE('',*,*,#141,.T.);
#52=ORIENTED_EDGE('',*,*,#142,.T.);
#53=ORIENTED_EDGE('',*,*,#141,.F.);
#54=ORIENTED_EDGE('',*,*,#143,.F.);
#55=ORIENTED_EDGE('',*,*,#144,.T.);
#56=ORIENTED_EDGE('',*,*,#145,.T.);
#57=ORIENTED_EDGE('',*,*,#144,.F.);
#58=ORIENTED_EDGE('',*,*,#146,.F.);
#59=ORIENTED_EDGE('',*,*,#136,.T.);
#60=ORIENTED_EDGE('',*,*,#137,.T.);
#61=ORIENTED_EDGE('',*,*,#146,.T.);
#62=ORIENTED_EDGE('',*,*,#143,.T.);
#63=ORIENTED_EDGE('',*,*,#140,.T.);
#64=ORIENTED_EDGE('',*,*,#131,.F.);
#65=ORIENTED_EDGE('',*,*,#121,.F.);
#66=ORIENTED_EDGE('',*,*,#134,.F.);
#67=ORIENTED_EDGE('',*,*,#127,.F.);
#68=ORIENTED_EDGE('',*,*,#135,.F.);
#69=ORIENTED_EDGE('',*,*,#139,.F.);
#70=ORIENTED_EDGE('',*,*,#142,.F.);
#71=ORIENTED_EDGE('',*,*,#145,.F.);
#72=ORIENTED_EDGE('',*,*,#147,.T.);
#73=ORIENTED_EDGE('',*,*,#148,.F.);
#74=ORIENTED_EDGE('',*,*,#149,.F.);
#75=ORIENTED_EDGE('',*,*,#150,.T.);
#76=ORIENTED_EDGE('',*,*,#151,.T.);
#77=ORIENTED_EDGE('',*,*,#150,.F.);
#78=ORIENTED_EDGE('',*,*,#152,.F.);
#79=ORIENTED_EDGE('',*,*,#153,.T.);
#80=ORIENTED_EDGE('',*,*,#154,.T.);
#81=ORIENTED_EDGE('',*,*,#153,.F.);
#82=ORIENTED_EDGE('',*,*,#155,.F.);
#83=ORIENTED_EDGE('',*,*,#156,.T.);
#84=ORIENTED_EDGE('',*,*,#157,.T.);
#85=ORIENTED_EDGE('',*,*,#156,.F.);
#86=ORIENTED_EDGE('',*,*,#158,.F.);
#87=ORIENTED_EDGE('',*,*,#148,.T.);
#88=ORIENTED_EDGE('',*,*,#149,.T.);
#89=ORIENTED_EDGE('',*,*,#158,.T.);
#90=ORIENTED_EDGE('',*,*,#155,.T.);
#91=ORIENTED_EDGE('',*,*,#152,.T.);
#92=ORIENTED_EDGE('',*,*,#125,.F.);
#93=ORIENTED_EDGE('',*,*,#133,.F.);
#94=ORIENTED_EDGE('',*,*,#119,.F.);
#95=ORIENTED_EDGE('',*,*,#132,.F.);
#96=ORIENTED_EDGE('',*,*,#147,.F.);
#97=ORIENTED_EDGE('',*,*,#151,.F.);
#98=ORIENTED_EDGE('',*,*,#154,.F.);
#99=ORIENTED_EDGE('',*,*,#157,.F.);
#100=ORIENTED_EDGE('',*,*,#128,.T.);
#101=ORIENTED_EDGE('',*,*,#117,.F.);
#102=ORIENTED_EDGE('',*,*,#159,.F.);
#103=ORIENTED_EDGE('',*,*,#160,.T.);
#104=ORIENTED_EDGE('',*,*,#130,.T.);
#105=ORIENTED_EDGE('',*,*,#161,.F.);
#106=ORIENTED_EDGE('',*,*,#162,.F.);
#107=ORIENTED_EDGE('',*,*,#123,.T.);
#108=ORIENTED_EDGE('',*,*,#129,.T.);
#109=ORIENTED_EDGE('',*,*,#160,.F.);
#110=ORIENTED_EDGE('',*,*,#163,.F.);
#111=ORIENTED_EDGE('',*,*,#161,.T.);
#112=ORIENTED_EDGE('',*,*,#159,.T.);
#113=ORIENTED_EDGE('',*,*,#116,.T.);
#114=ORIENTED_EDGE('',*,*,#162,.T.);
#115=ORIENTED_EDGE('',*,*,#163,.T.);
#116=EDGE_CURVE('',#164,#165,#196,.T.);
#117=EDGE_CURVE('',#164,#166,#197,.T.);
#118=EDGE_CURVE('',#167,#166,#198,.T.);
#119=EDGE_CURVE('',#167,#168,#199,.T.);
#120=EDGE_CURVE('',#168,#169,#200,.T.);
#121=EDGE_CURVE('',#169,#170,#201,.T.);
#122=EDGE_CURVE('',#171,#170,#202,.T.);
#123=EDGE_CURVE('',#165,#171,#203,.T.);
#124=EDGE_CURVE('',#172,#173,#204,.T.);
#125=EDGE_CURVE('',#173,#174,#205,.T.);
#126=EDGE_CURVE('',#175,#174,#206,.T.);
#127=EDGE_CURVE('',#175,#172,#207,.T.);
#128=EDGE_CURVE('',#176,#166,#208,.T.);
#129=EDGE_CURVE('',#177,#176,#209,.T.);
#130=EDGE_CURVE('',#171,#177,#210,.T.);
#131=EDGE_CURVE('',#170,#175,#211,.T.);
#132=EDGE_CURVE('',#174,#167,#212,.T.);
#133=EDGE_CURVE('',#168,#173,#213,.T.);
#134=EDGE_CURVE('',#172,#169,#214,.T.);
#135=EDGE_CURVE('',#178,#179,#215,.T.);
#136=EDGE_CURVE('',#180,#179,#216,.T.);
#137=EDGE_CURVE('',#181,#180,#217,.T.);
#138=EDGE_CURVE('',#181,#178,#218,.T.);
#139=EDGE_CURVE('',#182,#178,#219,.T.);
#140=EDGE_CURVE('',#183,#181,#220,.T.);
#141=EDGE_CURVE('',#183,#182,#221,.T.);
#142=EDGE_CURVE('',#184,#182,#222,.T.);
#143=EDGE_CURVE('',#185,#183,#223,.T.);
#144=EDGE_CURVE('',#185,#184,#224,.T.);
#145=EDGE_CURVE('',#179,#184,#225,.T.);
#146=EDGE_CURVE('',#180,#185,#226,.T.);
#147=EDGE_CURVE('',#186,#187,#227,.T.);
#148=EDGE_CURVE('',#188,#187,#228,.T.);
#149=EDGE_CURVE('',#189,#188,#229,.T.);
#150=EDGE_CURVE('',#189,#186,#230,.T.);
#151=EDGE_CURVE('',#190,#186,#231,.T.);
#152=EDGE_CURVE('',#191,#189,#232,.T.);
#153=EDGE_CURVE('',#191,#190,#233,.T.);
#154=EDGE_CURVE('',#192,#190,#234,.T.);
#155=EDGE_CURVE('',#193,#191,#235,.T.);
#156=EDGE_CURVE('',#193,#192,#236,.T.);
#157=EDGE_CURVE('',#187,#192,#237,.T.);
#158=EDGE_CURVE('',#188,#193,#238,.T.);
#159=EDGE_CURVE('',#194,#164,#239,.T.);
#160=EDGE_CURVE('',#194,#176,#240,.T.);
#161=EDGE_CURVE('',#195,#177,#241,.T.);
#162=EDGE_CURVE('',#165,#195,#242,.T.);
#163=EDGE_CURVE('',#195,#194,#243,.T.);
#164=VERTEX_POINT('',#637);
#165=VERTEX_POINT('',#638);
#166=VERTEX_POINT('',#640);
#167=VERTEX_POINT('',#642);
#168=VERTEX_POINT('',#644);
#169=VERTEX_POINT('',#646);
#170=VERTEX_POINT('',#648);
#171=VERTEX_POINT('',#650);
#172=VERTEX_POINT('',#654);
#173=VERTEX_POINT('',#655);
#174=VERTEX_POINT('',#657);
#175=VERTEX_POINT('',#659);
#176=VERTEX_POINT('',#663);
#177=VERTEX_POINT('',#665);
#178=VERTEX_POINT('',#674);
#179=VERTEX_POINT('',#675);
#180=VERTEX_POINT('',#677);
#181=VERTEX_POINT('',#679);
#182=VERTEX_POINT('',#683);
#183=VERTEX_POINT('',#685);
#184=VERTEX_POINT('',#689);
#185=VERTEX_POINT('',#691);
#186=VERTEX_POINT('',#700);
#187=VERTEX_POINT('',#701);
#188=VERTEX_POINT('',#703);
#189=VERTEX_POINT('',#705);
#190=VERTEX_POINT('',#709);
#191=VERTEX_POINT('',#711);
#192=VERTEX_POINT('',#715);
#193=VERTEX_POINT('',#717);
#194=VERTEX_POINT('',#726);
#195=VERTEX_POINT('',#730);
#196=LINE('',#636,#244);
#197=LINE('',#639,#245);
#198=LINE('',#641,#246);
#199=LINE('',#643,#247);
#200=LINE('',#645,#248);
#201=LINE('',#647,#249);
#202=LINE('',#649,#250);
#203=LINE('',#651,#251);
#204=LINE('',#653,#252);
#205=LINE('',#656,#253);
#206=LINE('',#658,#254);
#207=LINE('',#660,#255);
#208=LINE('',#662,#256);
#209=LINE('',#664,#257);
#210=LINE('',#666,#258);
#211=LINE('',#667,#259);
#212=LINE('',#668,#260);
#213=LINE('',#670,#261);
#214=LINE('',#671,#262);
#215=LINE('',#673,#263);
#216=LINE('',#676,#264);
#217=LINE('',#678,#265);
#218=LINE('',#680,#266);
#219=LINE('',#682,#267);
#220=LINE('',#684,#268);
#221=LINE('',#686,#269);
#222=LINE('',#688,#270);
#223=LINE('',#690,#271);
#224=LINE('',#692,#272);
#225=LINE('',#694,#273);
#226=LINE('',#695,#274);
#227=LINE('',#699,#275);
#228=LINE('',#702,#276);
#229=LINE('',#704,#277);
#230=LINE('',#706,#278);
#231=LINE('',#708,#279);
#232=LINE('',#710,#280);
#233=LINE('',#712,#281);
#234=LINE('',#714,#282);
#235=LINE('',#716,#283);
#236=LINE('',#718,#284);
#237=LINE('',#720,#285);
#238=LINE('',#721,#286);
#239=LINE('',#725,#287);
#240=LINE('',#727,#288);
#241=LINE('',#729,#289);
#242=LINE('',#731,#290);
#243=LINE('',#733,#291);
#244=VECTOR('',#548,1000.);
#245=VECTOR('',#549,1000.);
#246=VECTOR('',#550,1000.);
#247=VECTOR('',#551,1000.);
#248=VECTOR('',#552,1000.);
#249=VECTOR('',#553,1000.);
#250=VECTOR('',#554,1000.);
#251=VECTOR('',#555,1000.);
#252=VECTOR('',#558,1000.);
#253=VECTOR('',#559,1000.);
#254=VECTOR('',#560,1000.);
#255=VECTOR('',#561,1000.);
#256=VECTOR('',#564,1000.);
#257=VECTOR('',#565,1000.);
#258=VECTOR('',#566,1000.);
#259=VECTOR('',#567,1000.);
#260=VECTOR('',#568,1000.);
#261=VECTOR('',#571,1000.);
#262=VECTOR('',#572,1000.);
#263=VECTOR('',#575,1000.);
#264=VECTOR('',#576,1000.);
#265=VECTOR('',#577,1000.);
#266=VECTOR('',#578,1000.);
#267=VECTOR('',#581,1000.);
#268=VECTOR('',#582,1000.);
#269=VECTOR('',#583,1000.);
#270=VECTOR('',#586,1000.);
#271=VECTOR('',#587,1000.);
#272=VECTOR('',#588,1000.);
#273=VECTOR('',#591,1000.);
#274=VECTOR('',#592,1000.);
#275=VECTOR('',#599,1000.);
#276=VECTOR('',#600,1000.);
#277=VECTOR('',#601,1000.);
#278=VECTOR('',#602,1000.);
#279=VECTOR('',#605,1000.);
#280=VECTOR('',#606,1000.);
#281=VECTOR('',#607,1000.);
#282=VECTOR('',#610,1000.);
#283=VECTOR('',#611,1000.);
#284=VECTOR('',#612,1000.);
#285=VECTOR('',#615,1000.);
#286=VECTOR('',#616,1000.);
#287=VECTOR('',#623,1000.);
#288=VECTOR('',#624,1000.);
#289=VECTOR('',#627,1000.);
#290=VECTOR('',#628,1000.);
#291=VECTOR('',#631,1000.);
#292=EDGE_LOOP('',(#20,#21,#22,#23,#24,#25,#26,#27));
#293=EDGE_LOOP('',(#28,#29,#30,#31));
#294=EDGE_LOOP('',(#32,#33,#34,#35,#36,#37,#38,#39));
#295=EDGE_LOOP('',(#40,#41,#42,#43));
#296=EDGE_LOOP('',(#44,#45,#46,#47));
#297=EDGE_LOOP('',(#48,#49,#50,#51));
#298=EDGE_LOOP('',(#52,#53,#54,#55));
#299=EDGE_LOOP('',(#56,#57,#58,#59));
#300=EDGE_LOOP('',(#60,#61,#62,#63));
#301=EDGE_LOOP('',(#64,#65,#66,#67));
#302=EDGE_LOOP('',(#68,#69,#70,#71));
#303=EDGE_LOOP('',(#72,#73,#74,#75));
#304=EDGE_LOOP('',(#76,#77,#78,#79));
#305=EDGE_LOOP('',(#80,#81,#82,#83));
#306=EDGE_LOOP('',(#84,#85,#86,#87));
#307=EDGE_LOOP('',(#88,#89,#90,#91));
#308=EDGE_LOOP('',(#92,#93,#94,#95));
#309=EDGE_LOOP('',(#96,#97,#98,#99));
#310=EDGE_LOOP('',(#100,#101,#102,#103));
#311=EDGE_LOOP('',(#104,#105,#106,#107));
#312=EDGE_LOOP('',(#108,#109,#110,#111));
#313=EDGE_LOOP('',(#112,#113,#114,#115));
#314=FACE_BOUND('',#292,.T.);
#315=FACE_BOUND('',#293,.T.);
#316=FACE_BOUND('',#294,.T.);
#317=FACE_BOUND('',#295,.T.);
#318=FACE_BOUND('',#296,.T.);
#319=FACE_BOUND('',#297,.T.);
#320=FACE_BOUND('',#298,.T.);
#321=FACE_BOUND('',#299,.T.);
#322=FACE_BOUND('',#300,.T.);
#323=FACE_BOUND('',#301,.T.);
#324=FACE_BOUND('',#302,.T.);
#325=FACE_BOUND('',#303,.T.);
#326=FACE_BOUND('',#304,.T.);
#327=FACE_BOUND('',#305,.T.);
#328=FACE_BOUND('',#306,.T.);
#329=FACE_BOUND('',#307,.T.);
#330=FACE_BOUND('',#308,.T.);
#331=FACE_BOUND('',#309,.T.);
#332=FACE_BOUND('',#310,.T.);
#333=FACE_BOUND('',#311,.T.);
#334=FACE_BOUND('',#312,.T.);
#335=FACE_BOUND('',#313,.T.);
#336=PLANE('',#524);
#337=PLANE('',#525);
#338=PLANE('',#526);
#339=PLANE('',#527);
#340=PLANE('',#528);
#341=PLANE('',#529);
#342=PLANE('',#530);
#343=PLANE('',#531);
#344=PLANE('',#532);
#345=PLANE('',#533);
#346=PLANE('',#534);
#347=PLANE('',#535);
#348=PLANE('',#536);
#349=PLANE('',#537);
#350=PLANE('',#538);
#351=PLANE('',#539);
#352=PLANE('',#540);
#353=PLANE('',#541);
#354=PLANE('',#542);
#355=PLANE('',#543);
#356=STYLED_ITEM('',(#376),#499);
#357=STYLED_ITEM('',(#377),#500);
#358=STYLED_ITEM('',(#378),#501);
#359=STYLED_ITEM('',(#379),#502);
#360=STYLED_ITEM('',(#380),#503);
#361=STYLED_ITEM('',(#381),#504);
#362=STYLED_ITEM('',(#382),#505);
#363=STYLED_ITEM('',(#383),#506);
#364=STYLED_ITEM('',(#384),#507);
#365=STYLED_ITEM('',(#385),#508);
#366=STYLED_ITEM('',(#386),#509);
#367=STYLED_ITEM('',(#387),#510);
#368=STYLED_ITEM('',(#388),#511);
#369=STYLED_ITEM('',(#389),#512);
#370=STYLED_ITEM('',(#390),#513);
#371=STYLED_ITEM('',(#391),#514);
#372=STYLED_ITEM('',(#392),#515);
#373=STYLED_ITEM('',(#393),#516);
#374=STYLED_ITEM('',(#394),#517);
#375=STYLED_ITEM('',(#395),#518);
#376=PRESENTATION_STYLE_ASSIGNMENT((#396));
#377=PRESENTATION_STYLE_ASSIGNMENT((#397));
#378=PRESENTATION_STYLE_ASSIGNMENT((#398));
#379=PRESENTATION_STYLE_ASSIGNMENT((#399));
#380=PRESENTATION_STYLE_ASSIGNMENT((#400));
#381=PRESENTATION_STYLE_ASSIGNMENT((#401));
#382=PRESENTATION_STYLE_ASSIGNMENT((#402));
#383=PRESENTATION_STYLE_ASSIGNMENT((#403));
#384=PRESENTATION_STYLE_ASSIGNMENT((#404));
#385=PRESENTATION_STYLE_ASSIGNMENT((#405));
#386=PRESENTATION_STYLE_ASSIGNMENT((#406));
#387=PRESENTATION_STYLE_ASSIGNMENT((#407));
#388=PRESENTATION_STYLE_ASSIGNMENT((#408));
#389=PRESENTATION_STYLE_ASSIGNMENT((#409));
#390=PRESENTATION_STYLE_ASSIGNMENT((#410));
#391=PRESENTATION_STYLE_ASSIGNMENT((#411));
#392=PRESENTATION_STYLE_ASSIGNMENT((#412));
#393=PRESENTATION_STYLE_ASSIGNMENT((#413));
#394=PRESENTATION_STYLE_ASSIGNMENT((#414));
#395=PRESENTATION_STYLE_ASSIGNMENT((#415));
#396=SURFACE_STYLE_USAGE(.BOTH.,#416);
#397=SURFACE_STYLE_USAGE(.BOTH.,#417);
#398=SURFACE_STYLE_USAGE(.BOTH.,#418);
#399=SURFACE_STYLE_USAGE(.BOTH.,#419);
#400=SURFACE_STYLE_USAGE(.BOTH.,#420);
#401=SURFACE_STYLE_USAGE(.BOTH.,#421);
#402=SURFACE_STYLE_USAGE(.BOTH.,#422);
#403=SURFACE_STYLE_USAGE(.BOTH.,#423);
#404=SURFACE_STYLE_USAGE(.BOTH.,#424);
#405=SURFACE_STYLE_USAGE(.BOTH.,#425);
#406=SURFACE_STYLE_USAGE(.BOTH.,#426);
#407=SURFACE_STYLE_USAGE(.BOTH.,#427);
#408=SURFACE_STYLE_USAGE(.BOTH.,#428);
#409=SURFACE_STYLE_USAGE(.BOTH.,#429);
#410=SURFACE_STYLE_USAGE(.BOTH.,#430);
#411=SURFACE_STYLE_USAGE(.BOTH.,#431);
#412=SURFACE_STYLE_USAGE(.BOTH.,#432);
#413=SURFACE_STYLE_USAGE(.BOTH.,#433);
#414=SURFACE_STYLE_USAGE(.BOTH.,#434);
#415=SURFACE_STYLE_USAGE(.BOTH.,#435);
#416=SURFACE_SIDE_STYLE('',(#436));
#417=SURFACE_SIDE_STYLE('',(#437));
#418=SURFACE_SIDE_STYLE('',(#438));
#419=SURFACE_SIDE_STYLE('',(#439));
#420=SURFACE_SIDE_STYLE('',(#440));
#421=SURFACE_SIDE_STYLE('',(#441));
#422=SURFACE_SIDE_STYLE('',(#442));
#423=SURFACE_SIDE_STYLE('',(#443));
#424=SURFACE_SIDE_STYLE('',(#444));
#425=SURFACE_SIDE_STYLE('',(#445));
#426=SURFACE_SIDE_STYLE('',(#446));
#427=SURFACE_SIDE_STYLE('',(#447));
#428=SURFACE_SIDE_STYLE('',(#448));
#429=SURFACE_SIDE_STYLE('',(#449));
#430=SURFACE_SIDE_STYLE('',(#450));
#431=SURFACE_SIDE_STYLE('',(#451));
#432=SURFACE_SIDE_STYLE('',(#452));
#433=SURFACE_SIDE_STYLE('',(#453));
#434=SURFACE_SIDE_STYLE('',(#454));
#435=SURFACE_SIDE_STYLE('',(#455));
#436=SURFACE_STYLE_FILL_AREA(#456);
#437=SURFACE_STYLE_FILL_AREA(#457);
#438=SURFACE_STYLE_FILL_AREA(#458);
#439=SURFACE_STYLE_FILL_AREA(#459);
#440=SURFACE_STYLE_FILL_AREA(#460);
#441=SURFACE_STYLE_FILL_AREA(#461);
#442=SURFACE_STYLE_FILL_AREA(#462);
#443=SURFACE_STYLE_FILL_AREA(#463);
#444=SURFACE_STYLE_FILL_AREA(#464);
#445=SURFACE_STYLE_FILL_AREA(#465);
#446=SURFACE_STYLE_FILL_AREA(#466);
#447=SURFACE_STYLE_FILL_AREA(#467);
#448=SURFACE_STYLE_FILL_AREA(#468);
#449=SURFACE_STYLE_FILL_AREA(#469);
#450=SURFACE_STYLE_FILL_AREA(#470);
#451=SURFACE_STYLE_FILL_AREA(#471);
#452=SURFACE_STYLE_FILL_AREA(#472);
#453=SURFACE_STYLE_FILL_AREA(#473);
#454=SURFACE_STYLE_FILL_AREA(#474);
#455=SURFACE_STYLE_FILL_AREA(#475);
#456=FILL_AREA_STYLE('',(#476));
#457=FILL_AREA_STYLE('',(#477));
#458=FILL_AREA_STYLE('',(#478));
#459=FILL_AREA_STYLE('',(#479));
#460=FILL_AREA_STYLE('',(#480));
#461=FILL_AREA_STYLE('',(#481));
#462=FILL_AREA_STYLE('',(#482));
#463=FILL_AREA_STYLE('',(#483));
#464=FILL_AREA_STYLE('',(#484));
#465=FILL_AREA_STYLE('',(#485));
#466=FILL_AREA_STYLE('',(#486));
#467=FILL_AREA_STYLE('',(#487));
#468=FILL_AREA_STYLE('',(#488));
#469=FILL_AREA_STYLE('',(#489));
#470=FILL_AREA_STYLE('',(#490));
#471=FILL_AREA_STYLE('',(#491));
#472=FILL_AREA_STYLE('',(#492));
#473=FILL_AREA_STYLE('',(#493));
#474=FILL_AREA_STYLE('',(#494));
#475=FILL_AREA_STYLE('',(#495));
#476=FILL_AREA_STYLE_COLOUR('',#496);
#477=FILL_AREA_STYLE_COLOUR('',#496);
#478=FILL_AREA_STYLE_COLOUR('',#496);
#479=FILL_AREA_STYLE_COLOUR('',#496);
#480=FILL_AREA_STYLE_COLOUR('',#497);
#481=FILL_AREA_STYLE_COLOUR('',#497);
#482=FILL_AREA_STYLE_COLOUR('',#497);
#483=FILL_AREA_STYLE_COLOUR('',#497);
#484=FILL_AREA_STYLE_COLOUR('',#497);
#485=FILL_AREA_STYLE_COLOUR('',#498);
#486=FILL_AREA_STYLE_COLOUR('',#497);
#487=FILL_AREA_STYLE_COLOUR('',#497);
#488=FILL_AREA_STYLE_COLOUR('',#497);
#489=FILL_AREA_STYLE_COLOUR('',#497);
#490=FILL_AREA_STYLE_COLOUR('',#497);
#491=FILL_AREA_STYLE_COLOUR('',#498);
#492=FILL_AREA_STYLE_COLOUR('',#497);
#493=FILL_AREA_STYLE_COLOUR('',#497);
#494=FILL_AREA_STYLE_COLOUR('',#497);
#495=FILL_AREA_STYLE_COLOUR('',#497);
#496=COLOUR_RGB('',0.200000002980232,0.200000002980232,0.200000002980232);
#497=COLOUR_RGB('',0.699999988079071,0.699999988079071,0.699999988079071);
#498=COLOUR_RGB('',0.5,0.5,0.5);
#499=ADVANCED_FACE('',(#314),#336,.T.);
#500=ADVANCED_FACE('',(#315),#337,.T.);
#501=ADVANCED_FACE('',(#316),#338,.T.);
#502=ADVANCED_FACE('',(#317),#339,.F.);
#503=ADVANCED_FACE('',(#318),#340,.F.);
#504=ADVANCED_FACE('',(#319),#341,.F.);
#505=ADVANCED_FACE('',(#320),#342,.F.);
#506=ADVANCED_FACE('',(#321),#343,.F.);
#507=ADVANCED_FACE('',(#322,#323),#344,.F.);
#508=ADVANCED_FACE('',(#324),#345,.T.);
#509=ADVANCED_FACE('',(#325),#346,.F.);
#510=ADVANCED_FACE('',(#326),#347,.F.);
#511=ADVANCED_FACE('',(#327),#348,.F.);
#512=ADVANCED_FACE('',(#328),#349,.F.);
#513=ADVANCED_FACE('',(#329,#330),#350,.F.);
#514=ADVANCED_FACE('',(#331),#351,.T.);
#515=ADVANCED_FACE('',(#332),#352,.F.);
#516=ADVANCED_FACE('',(#333),#353,.F.);
#517=ADVANCED_FACE('',(#334),#354,.F.);
#518=ADVANCED_FACE('',(#335),#355,.T.);
#519=CLOSED_SHELL('',(#499,#500,#501,#502,#503,#504,#505,#506,#507,#508,
#509,#510,#511,#512,#513,#514,#515,#516,#517,#518));
#520=MANIFOLD_SOLID_BREP('',#519);
#521=SHAPE_DEFINITION_REPRESENTATION(#741,#522);
#522=SHAPE_REPRESENTATION('7488915724',(#523),#736);
#523=AXIS2_PLACEMENT_3D('',#634,#544,#545);
#524=AXIS2_PLACEMENT_3D('',#635,#546,#547);
#525=AXIS2_PLACEMENT_3D('',#652,#556,#557);
#526=AXIS2_PLACEMENT_3D('',#661,#562,#563);
#527=AXIS2_PLACEMENT_3D('',#669,#569,#570);
#528=AXIS2_PLACEMENT_3D('',#672,#573,#574);
#529=AXIS2_PLACEMENT_3D('',#681,#579,#580);
#530=AXIS2_PLACEMENT_3D('',#687,#584,#585);
#531=AXIS2_PLACEMENT_3D('',#693,#589,#590);
#532=AXIS2_PLACEMENT_3D('',#696,#593,#594);
#533=AXIS2_PLACEMENT_3D('',#697,#595,#596);
#534=AXIS2_PLACEMENT_3D('',#698,#597,#598);
#535=AXIS2_PLACEMENT_3D('',#707,#603,#604);
#536=AXIS2_PLACEMENT_3D('',#713,#608,#609);
#537=AXIS2_PLACEMENT_3D('',#719,#613,#614);
#538=AXIS2_PLACEMENT_3D('',#722,#617,#618);
#539=AXIS2_PLACEMENT_3D('',#723,#619,#620);
#540=AXIS2_PLACEMENT_3D('',#724,#621,#622);
#541=AXIS2_PLACEMENT_3D('',#728,#625,#626);
#542=AXIS2_PLACEMENT_3D('',#732,#629,#630);
#543=AXIS2_PLACEMENT_3D('',#734,#632,#633);
#544=DIRECTION('',(0.,0.,1.));
#545=DIRECTION('',(1.,0.,0.));
#546=DIRECTION('',(0.,0.,-1.));
#547=DIRECTION('',(-1.,0.,0.));
#548=DIRECTION('',(-1.,0.,0.));
#549=DIRECTION('',(0.,1.,0.));
#550=DIRECTION('',(-1.,0.,0.));
#551=DIRECTION('',(0.,-1.,0.));
#552=DIRECTION('',(-1.,0.,0.));
#553=DIRECTION('',(0.,1.,0.));
#554=DIRECTION('',(-1.,0.,0.));
#555=DIRECTION('',(0.,1.,0.));
#556=DIRECTION('',(0.,0.,1.));
#557=DIRECTION('',(1.,0.,0.));
#558=DIRECTION('',(1.,0.,0.));
#559=DIRECTION('',(0.,1.,0.));
#560=DIRECTION('',(1.,0.,0.));
#561=DIRECTION('',(0.,-1.,0.));
#562=DIRECTION('',(0.,1.,0.));
#563=DIRECTION('',(0.,0.,1.));
#564=DIRECTION('',(-7.74430123203932E-17,0.,-1.));
#565=DIRECTION('',(1.,0.,0.));
#566=DIRECTION('',(-7.74430123203932E-17,0.,1.));
#567=DIRECTION('',(-1.27553196763001E-16,0.,1.));
#568=DIRECTION('',(-1.27553196763001E-16,0.,-1.));
#569=DIRECTION('',(0.,1.,0.));
#570=DIRECTION('',(0.,0.,1.));
#571=DIRECTION('',(1.27553196763001E-16,0.,1.));
#572=DIRECTION('',(1.27553196763001E-16,0.,-1.));
#573=DIRECTION('',(0.,-1.,0.));
#574=DIRECTION('',(0.,0.,-1.));
#575=DIRECTION('',(-1.27553196763001E-16,0.,1.));
#576=DIRECTION('',(-1.,0.,-1.27553196763001E-16));
#577=DIRECTION('',(-1.27553196763001E-16,0.,1.));
#578=DIRECTION('',(-1.,0.,-1.27553196763001E-16));
#579=DIRECTION('',(-1.27553196763001E-16,0.,1.));
#580=DIRECTION('',(1.,0.,1.27553196763001E-16));
#581=DIRECTION('',(0.,1.,0.));
#582=DIRECTION('',(0.,1.,0.));
#583=DIRECTION('',(-1.,0.,-1.27553196763001E-16));
#584=DIRECTION('',(0.,1.,0.));
#585=DIRECTION('',(0.,0.,1.));
#586=DIRECTION('',(1.27553196763001E-16,0.,-1.));
#587=DIRECTION('',(1.27553196763001E-16,0.,-1.));
#588=DIRECTION('',(-1.,0.,-1.27553196763001E-16));
#589=DIRECTION('',(1.27553196763001E-16,0.,-1.));
#590=DIRECTION('',(-1.,0.,-1.27553196763001E-16));
#591=DIRECTION('',(0.,-1.,0.));
#592=DIRECTION('',(0.,-1.,0.));
#593=DIRECTION('',(1.,0.,1.27553196763001E-16));
#594=DIRECTION('',(1.27553196763001E-16,0.,-1.));
#595=DIRECTION('',(-1.,0.,-1.27553196763001E-16));
#596=DIRECTION('',(-1.27553196763001E-16,0.,1.));
#597=DIRECTION('',(-1.27553196763001E-16,0.,-1.));
#598=DIRECTION('',(-1.,0.,1.27553196763001E-16));
#599=DIRECTION('',(0.,1.,0.));
#600=DIRECTION('',(1.,0.,-1.27553196763001E-16));
#601=DIRECTION('',(0.,1.,0.));
#602=DIRECTION('',(1.,0.,-1.27553196763001E-16));
#603=DIRECTION('',(0.,1.,0.));
#604=DIRECTION('',(0.,0.,1.));
#605=DIRECTION('',(1.27553196763001E-16,0.,1.));
#606=DIRECTION('',(1.27553196763001E-16,0.,1.));
#607=DIRECTION('',(1.,0.,-1.27553196763001E-16));
#608=DIRECTION('',(1.27553196763001E-16,0.,1.));
#609=DIRECTION('',(1.,0.,-1.27553196763001E-16));
#610=DIRECTION('',(0.,-1.,0.));
#611=DIRECTION('',(0.,-1.,0.));
#612=DIRECTION('',(1.,0.,-1.27553196763001E-16));
#613=DIRECTION('',(0.,-1.,0.));
#614=DIRECTION('',(0.,0.,-1.));
#615=DIRECTION('',(-1.27553196763001E-16,0.,-1.));
#616=DIRECTION('',(-1.27553196763001E-16,0.,-1.));
#617=DIRECTION('',(-1.,0.,1.27553196763001E-16));
#618=DIRECTION('',(1.27553196763001E-16,0.,1.));
#619=DIRECTION('',(1.,0.,1.27553196763001E-16));
#620=DIRECTION('',(1.27553196763001E-16,0.,-1.));
#621=DIRECTION('',(1.,0.,-7.74430123203932E-17));
#622=DIRECTION('',(-7.74430123203932E-17,0.,-1.));
#623=DIRECTION('',(-7.74430123203932E-17,0.,-1.));
#624=DIRECTION('',(0.,1.,0.));
#625=DIRECTION('',(-1.,0.,-7.74430123203932E-17));
#626=DIRECTION('',(-7.74430123203932E-17,0.,1.));
#627=DIRECTION('',(0.,1.,0.));
#628=DIRECTION('',(-7.74430123203932E-17,0.,1.));
#629=DIRECTION('',(0.,0.,1.));
#630=DIRECTION('',(1.,0.,0.));
#631=DIRECTION('',(1.,0.,0.));
#632=DIRECTION('',(0.,1.,0.));
#633=DIRECTION('',(0.,0.,1.));
#634=CARTESIAN_POINT('',(0.,0.,0.));
#635=CARTESIAN_POINT('',(1.6,-0.25,-0.85));
#636=CARTESIAN_POINT('',(0.235,0.249,-0.85));
#637=CARTESIAN_POINT('',(0.235,0.249,-0.85));
#638=CARTESIAN_POINT('',(-0.235,0.249,-0.85));
#639=CARTESIAN_POINT('',(0.235,0.249,-0.85));
#640=CARTESIAN_POINT('',(0.235,0.25,-0.85));
#641=CARTESIAN_POINT('',(1.6,0.25,-0.85));
#642=CARTESIAN_POINT('',(1.3,0.25,-0.85));
#643=CARTESIAN_POINT('',(1.3,0.25,-0.85));
#644=CARTESIAN_POINT('',(1.3,-0.25,-0.85));
#645=CARTESIAN_POINT('',(1.6,-0.25,-0.85));
#646=CARTESIAN_POINT('',(-1.3,-0.25,-0.85));
#647=CARTESIAN_POINT('',(-1.3,-0.25,-0.85));
#648=CARTESIAN_POINT('',(-1.3,0.25,-0.85));
#649=CARTESIAN_POINT('',(1.6,0.25,-0.85));
#650=CARTESIAN_POINT('',(-0.235,0.25,-0.85));
#651=CARTESIAN_POINT('',(-0.235,0.249,-0.85));
#652=CARTESIAN_POINT('',(-1.6,-0.25,0.85));
#653=CARTESIAN_POINT('',(-1.6,-0.25,0.85));
#654=CARTESIAN_POINT('',(-1.3,-0.25,0.85));
#655=CARTESIAN_POINT('',(1.3,-0.25,0.85));
#656=CARTESIAN_POINT('',(1.3,-0.25,0.85));
#657=CARTESIAN_POINT('',(1.3,0.25,0.85));
#658=CARTESIAN_POINT('',(-1.6,0.25,0.85));
#659=CARTESIAN_POINT('',(-1.3,0.25,0.85));
#660=CARTESIAN_POINT('',(-1.3,0.25,0.85));
#661=CARTESIAN_POINT('',(0.,0.25,0.));
#662=CARTESIAN_POINT('',(0.235,0.25,-0.15));
#663=CARTESIAN_POINT('',(0.235,0.25,-0.15));
#664=CARTESIAN_POINT('',(-0.235,0.25,-0.15));
#665=CARTESIAN_POINT('',(-0.235,0.25,-0.15));
#666=CARTESIAN_POINT('',(-0.235,0.25,-0.85));
#667=CARTESIAN_POINT('',(-1.3,0.25,-0.85));
#668=CARTESIAN_POINT('',(1.3,0.25,0.85));
#669=CARTESIAN_POINT('',(0.,-0.25,0.));
#670=CARTESIAN_POINT('',(1.3,-0.25,-0.85));
#671=CARTESIAN_POINT('',(-1.3,-0.25,0.85));
#672=CARTESIAN_POINT('',(-1.3,0.249,-0.849));
#673=CARTESIAN_POINT('',(-1.6,0.249,-0.849));
#674=CARTESIAN_POINT('',(-1.6,0.249,-0.849));
#675=CARTESIAN_POINT('',(-1.6,0.249,0.849));
#676=CARTESIAN_POINT('',(-1.3,0.249,0.849));
#677=CARTESIAN_POINT('',(-1.3,0.249,0.849));
#678=CARTESIAN_POINT('',(-1.3,0.249,-0.849));
#679=CARTESIAN_POINT('',(-1.3,0.249,-0.849));
#680=CARTESIAN_POINT('',(-1.3,0.249,-0.849));
#681=CARTESIAN_POINT('',(-1.3,-0.249,-0.849));
#682=CARTESIAN_POINT('',(-1.6,-0.249,-0.849));
#683=CARTESIAN_POINT('',(-1.6,-0.249,-0.849));
#684=CARTESIAN_POINT('',(-1.3,-0.249,-0.849));
#685=CARTESIAN_POINT('',(-1.3,-0.249,-0.849));
#686=CARTESIAN_POINT('',(-1.3,-0.249,-0.849));
#687=CARTESIAN_POINT('',(-1.3,-0.249,0.849));
#688=CARTESIAN_POINT('',(-1.6,-0.249,0.849));
#689=CARTESIAN_POINT('',(-1.6,-0.249,0.849));
#690=CARTESIAN_POINT('',(-1.3,-0.249,0.849));
#691=CARTESIAN_POINT('',(-1.3,-0.249,0.849));
#692=CARTESIAN_POINT('',(-1.3,-0.249,0.849));
#693=CARTESIAN_POINT('',(-1.3,0.249,0.849));
#694=CARTESIAN_POINT('',(-1.6,0.249,0.849));
#695=CARTESIAN_POINT('',(-1.3,0.249,0.849));
#696=CARTESIAN_POINT('',(-1.3,0.,-1.65819155791901E-16));
#697=CARTESIAN_POINT('',(-1.6,-0.25,-0.85));
#698=CARTESIAN_POINT('',(1.3,-0.249,0.849));
#699=CARTESIAN_POINT('',(1.6,-0.249,0.849));
#700=CARTESIAN_POINT('',(1.6,-0.249,0.849));
#701=CARTESIAN_POINT('',(1.6,0.249,0.849));
#702=CARTESIAN_POINT('',(1.3,0.249,0.849));
#703=CARTESIAN_POINT('',(1.3,0.249,0.849));
#704=CARTESIAN_POINT('',(1.3,-0.249,0.849));
#705=CARTESIAN_POINT('',(1.3,-0.249,0.849));
#706=CARTESIAN_POINT('',(1.3,-0.249,0.849));
#707=CARTESIAN_POINT('',(1.3,-0.249,-0.849));
#708=CARTESIAN_POINT('',(1.6,-0.249,-0.849));
#709=CARTESIAN_POINT('',(1.6,-0.249,-0.849));
#710=CARTESIAN_POINT('',(1.3,-0.249,-0.849));
#711=CARTESIAN_POINT('',(1.3,-0.249,-0.849));
#712=CARTESIAN_POINT('',(1.3,-0.249,-0.849));
#713=CARTESIAN_POINT('',(1.3,0.249,-0.849));
#714=CARTESIAN_POINT('',(1.6,0.249,-0.849));
#715=CARTESIAN_POINT('',(1.6,0.249,-0.849));
#716=CARTESIAN_POINT('',(1.3,0.249,-0.849));
#717=CARTESIAN_POINT('',(1.3,0.249,-0.849));
#718=CARTESIAN_POINT('',(1.3,0.249,-0.849));
#719=CARTESIAN_POINT('',(1.3,0.249,0.849));
#720=CARTESIAN_POINT('',(1.6,0.249,0.849));
#721=CARTESIAN_POINT('',(1.3,0.249,0.849));
#722=CARTESIAN_POINT('',(1.3,0.,-1.65819155791901E-16));
#723=CARTESIAN_POINT('',(1.6,-0.25,0.85));
#724=CARTESIAN_POINT('',(0.235,0.249,-0.15));
#725=CARTESIAN_POINT('',(0.235,0.249,-0.15));
#726=CARTESIAN_POINT('',(0.235,0.249,-0.15));
#727=CARTESIAN_POINT('',(0.235,0.249,-0.15));
#728=CARTESIAN_POINT('',(-0.235,0.249,-0.85));
#729=CARTESIAN_POINT('',(-0.235,0.249,-0.15));
#730=CARTESIAN_POINT('',(-0.235,0.249,-0.15));
#731=CARTESIAN_POINT('',(-0.235,0.249,-0.85));
#732=CARTESIAN_POINT('',(-0.235,0.249,-0.15));
#733=CARTESIAN_POINT('',(-0.235,0.249,-0.15));
#734=CARTESIAN_POINT('',(0.,0.249,0.));
#735=MECHANICAL_DESIGN_GEOMETRIC_PRESENTATION_REPRESENTATION('',(#356,#357,
#358,#359,#360,#361,#362,#363,#364,#365,#366,#367,#368,#369,#370,#371,#372,
#373,#374,#375),#736);
#736=(
GEOMETRIC_REPRESENTATION_CONTEXT(3)
GLOBAL_UNCERTAINTY_ASSIGNED_CONTEXT((#737))
GLOBAL_UNIT_ASSIGNED_CONTEXT((#740,#739,#738))
REPRESENTATION_CONTEXT('7488915724','TOP_LEVEL_ASSEMBLY_PART')
);
#737=UNCERTAINTY_MEASURE_WITH_UNIT(LENGTH_MEASURE(0.005),#740,
'DISTANCE_ACCURACY_VALUE','Maximum Tolerance applied to model');
#738=(
NAMED_UNIT(*)
SI_UNIT($,.STERADIAN.)
SOLID_ANGLE_UNIT()
);
#739=(
NAMED_UNIT(*)
PLANE_ANGLE_UNIT()
SI_UNIT($,.RADIAN.)
);
#740=(
LENGTH_UNIT()
NAMED_UNIT(*)
SI_UNIT(.MILLI.,.METRE.)
);
#741=PRODUCT_DEFINITION_SHAPE('','',#742);
#742=PRODUCT_DEFINITION('','',#744,#743);
#743=PRODUCT_DEFINITION_CONTEXT('',#750,'design');
#744=PRODUCT_DEFINITION_FORMATION_WITH_SPECIFIED_SOURCE('','',#746,
 .NOT_KNOWN.);
#745=PRODUCT_RELATED_PRODUCT_CATEGORY('','',(#746));
#746=PRODUCT('7488915724','7488915724','7488915724',(#748));
#747=PRODUCT_CATEGORY('','');
#748=PRODUCT_CONTEXT('',#750,'mechanical');
#749=APPLICATION_PROTOCOL_DEFINITION('international standard',
'automotive_design',2010,#750);
#750=APPLICATION_CONTEXT(
'core data for automotive mechanical design processes');
ENDSEC;
END-ISO-10303-21;
