ISO-10303-21;
HEADER;
/* Generated by software containing ST-Developer
 * from STEP Tools, Inc. (www.steptools.com) 
 */
/* OPTION: strings as raw bytes, not using required /X/ escapes */

FILE_DESCRIPTION(
/* description */ ('Unknown'),
/* implementation_level */ '2;1');

FILE_NAME(
/* name */ '746630200',
/* time_stamp */ '2019-05-14T11:16:51+02:00',
/* author */ ('Unknown'),
/* organization */ ('Unknown'),
/* preprocessor_version */ 'ST-DEVELOPER v16.7',
/* originating_system */ 'DEX',
/* authorisation */ $);

FILE_SCHEMA (('AUTOMOTIVE_DESIGN {1 0 10303 214 3 1 1}'));
ENDSEC;

DATA;
#10=PROPERTY_DEFINITION_REPRESENTATION(#14,#12);
#11=PROPERTY_DEFINITION_REPRESENTATION(#15,#13);
#12=REPRESENTATION('',(#16),#480);
#13=REPRESENTATION('',(#17),#480);
#14=PROPERTY_DEFINITION('pmi validation property','',#485);
#15=PROPERTY_DEFINITION('pmi validation property','',#485);
#16=VALUE_REPRESENTATION_ITEM('number of annotations',COUNT_MEASURE(0.));
#17=VALUE_REPRESENTATION_ITEM('number of views',COUNT_MEASURE(0.));
#18=SHAPE_REPRESENTATION_RELATIONSHIP('','',#330,#19);
#19=ADVANCED_BREP_SHAPE_REPRESENTATION('',(#328),#480);
#20=CONICAL_SURFACE('',#351,0.7835,0.785398163397449);
#21=CONICAL_SURFACE('',#352,1.2835,0.785398163397448);
#22=CYLINDRICAL_SURFACE('',#342,50.);
#23=CYLINDRICAL_SURFACE('',#345,50.);
#24=CYLINDRICAL_SURFACE('',#348,0.7835);
#25=CIRCLE('',#337,1.2835);
#26=CIRCLE('',#338,50.);
#27=CIRCLE('',#340,1.2835);
#28=CIRCLE('',#341,50.);
#29=CIRCLE('',#343,50.);
#30=CIRCLE('',#346,50.);
#31=CIRCLE('',#349,0.7835);
#32=CIRCLE('',#350,0.7835);
#33=ORIENTED_EDGE('',*,*,#89,.T.);
#34=ORIENTED_EDGE('',*,*,#90,.F.);
#35=ORIENTED_EDGE('',*,*,#91,.F.);
#36=ORIENTED_EDGE('',*,*,#92,.F.);
#37=ORIENTED_EDGE('',*,*,#93,.F.);
#38=ORIENTED_EDGE('',*,*,#94,.F.);
#39=ORIENTED_EDGE('',*,*,#89,.F.);
#40=ORIENTED_EDGE('',*,*,#95,.F.);
#41=ORIENTED_EDGE('',*,*,#96,.T.);
#42=ORIENTED_EDGE('',*,*,#97,.T.);
#43=ORIENTED_EDGE('',*,*,#98,.T.);
#44=ORIENTED_EDGE('',*,*,#99,.F.);
#45=ORIENTED_EDGE('',*,*,#100,.F.);
#46=ORIENTED_EDGE('',*,*,#98,.F.);
#47=ORIENTED_EDGE('',*,*,#101,.T.);
#48=ORIENTED_EDGE('',*,*,#102,.T.);
#49=ORIENTED_EDGE('',*,*,#103,.T.);
#50=ORIENTED_EDGE('',*,*,#104,.F.);
#51=ORIENTED_EDGE('',*,*,#102,.F.);
#52=ORIENTED_EDGE('',*,*,#105,.T.);
#53=ORIENTED_EDGE('',*,*,#106,.F.);
#54=ORIENTED_EDGE('',*,*,#107,.F.);
#55=ORIENTED_EDGE('',*,*,#91,.T.);
#56=ORIENTED_EDGE('',*,*,#108,.F.);
#57=ORIENTED_EDGE('',*,*,#109,.T.);
#58=ORIENTED_EDGE('',*,*,#97,.F.);
#59=ORIENTED_EDGE('',*,*,#110,.F.);
#60=ORIENTED_EDGE('',*,*,#105,.F.);
#61=ORIENTED_EDGE('',*,*,#101,.F.);
#62=ORIENTED_EDGE('',*,*,#111,.T.);
#63=ORIENTED_EDGE('',*,*,#112,.F.);
#64=ORIENTED_EDGE('',*,*,#99,.T.);
#65=ORIENTED_EDGE('',*,*,#100,.T.);
#66=ORIENTED_EDGE('',*,*,#104,.T.);
#67=ORIENTED_EDGE('',*,*,#110,.T.);
#68=ORIENTED_EDGE('',*,*,#96,.F.);
#69=ORIENTED_EDGE('',*,*,#113,.F.);
#70=ORIENTED_EDGE('',*,*,#106,.T.);
#71=ORIENTED_EDGE('',*,*,#92,.T.);
#72=ORIENTED_EDGE('',*,*,#107,.T.);
#73=ORIENTED_EDGE('',*,*,#113,.T.);
#74=ORIENTED_EDGE('',*,*,#95,.T.);
#75=ORIENTED_EDGE('',*,*,#112,.T.);
#76=ORIENTED_EDGE('',*,*,#103,.F.);
#77=ORIENTED_EDGE('',*,*,#114,.F.);
#78=ORIENTED_EDGE('',*,*,#93,.T.);
#79=ORIENTED_EDGE('',*,*,#108,.T.);
#80=ORIENTED_EDGE('',*,*,#90,.T.);
#81=ORIENTED_EDGE('',*,*,#94,.T.);
#82=ORIENTED_EDGE('',*,*,#114,.T.);
#83=ORIENTED_EDGE('',*,*,#115,.T.);
#84=ORIENTED_EDGE('',*,*,#116,.T.);
#85=ORIENTED_EDGE('',*,*,#111,.F.);
#86=ORIENTED_EDGE('',*,*,#115,.F.);
#87=ORIENTED_EDGE('',*,*,#116,.F.);
#88=ORIENTED_EDGE('',*,*,#109,.F.);
#89=EDGE_CURVE('',#117,#118,#137,.T.);
#90=EDGE_CURVE('',#119,#118,#138,.T.);
#91=EDGE_CURVE('',#120,#119,#139,.T.);
#92=EDGE_CURVE('',#117,#120,#140,.T.);
#93=EDGE_CURVE('',#121,#122,#141,.T.);
#94=EDGE_CURVE('',#118,#121,#142,.T.);
#95=EDGE_CURVE('',#123,#117,#143,.T.);
#96=EDGE_CURVE('',#123,#124,#144,.T.);
#97=EDGE_CURVE('',#124,#125,#145,.T.);
#98=EDGE_CURVE('',#125,#126,#146,.T.);
#99=EDGE_CURVE('',#122,#126,#147,.T.);
#100=EDGE_CURVE('',#126,#127,#148,.T.);
#101=EDGE_CURVE('',#125,#128,#149,.T.);
#102=EDGE_CURVE('',#128,#127,#150,.T.);
#103=EDGE_CURVE('',#129,#130,#151,.T.);
#104=EDGE_CURVE('',#127,#130,#152,.T.);
#105=EDGE_CURVE('',#128,#131,#153,.T.);
#106=EDGE_CURVE('',#132,#131,#154,.T.);
#107=EDGE_CURVE('',#120,#132,#155,.T.);
#108=EDGE_CURVE('',#129,#119,#156,.T.);
#109=EDGE_CURVE('',#133,#133,#25,.T.);
#110=EDGE_CURVE('',#131,#124,#26,.T.);
#111=EDGE_CURVE('',#134,#134,#27,.F.);
#112=EDGE_CURVE('',#122,#130,#28,.T.);
#113=EDGE_CURVE('',#132,#123,#29,.T.);
#114=EDGE_CURVE('',#121,#129,#30,.T.);
#115=EDGE_CURVE('',#135,#135,#31,.T.);
#116=EDGE_CURVE('',#136,#136,#32,.F.);
#117=VERTEX_POINT('',#420);
#118=VERTEX_POINT('',#421);
#119=VERTEX_POINT('',#423);
#120=VERTEX_POINT('',#425);
#121=VERTEX_POINT('',#429);
#122=VERTEX_POINT('',#430);
#123=VERTEX_POINT('',#433);
#124=VERTEX_POINT('',#435);
#125=VERTEX_POINT('',#437);
#126=VERTEX_POINT('',#439);
#127=VERTEX_POINT('',#443);
#128=VERTEX_POINT('',#445);
#129=VERTEX_POINT('',#449);
#130=VERTEX_POINT('',#450);
#131=VERTEX_POINT('',#453);
#132=VERTEX_POINT('',#455);
#133=VERTEX_POINT('',#460);
#134=VERTEX_POINT('',#464);
#135=VERTEX_POINT('',#474);
#136=VERTEX_POINT('',#476);
#137=LINE('',#419,#157);
#138=LINE('',#422,#158);
#139=LINE('',#424,#159);
#140=LINE('',#426,#160);
#141=LINE('',#428,#161);
#142=LINE('',#431,#162);
#143=LINE('',#432,#163);
#144=LINE('',#434,#164);
#145=LINE('',#436,#165);
#146=LINE('',#438,#166);
#147=LINE('',#440,#167);
#148=LINE('',#442,#168);
#149=LINE('',#444,#169);
#150=LINE('',#446,#170);
#151=LINE('',#448,#171);
#152=LINE('',#451,#172);
#153=LINE('',#452,#173);
#154=LINE('',#454,#174);
#155=LINE('',#456,#175);
#156=LINE('',#457,#176);
#157=VECTOR('',#357,1000.);
#158=VECTOR('',#358,1000.);
#159=VECTOR('',#359,1000.);
#160=VECTOR('',#360,1000.);
#161=VECTOR('',#363,1000.);
#162=VECTOR('',#364,1000.);
#163=VECTOR('',#365,1000.);
#164=VECTOR('',#366,1000.);
#165=VECTOR('',#367,1000.);
#166=VECTOR('',#368,1000.);
#167=VECTOR('',#369,1000.);
#168=VECTOR('',#372,1000.);
#169=VECTOR('',#373,1000.);
#170=VECTOR('',#374,1000.);
#171=VECTOR('',#377,1000.);
#172=VECTOR('',#378,1000.);
#173=VECTOR('',#379,1000.);
#174=VECTOR('',#380,1000.);
#175=VECTOR('',#381,1000.);
#176=VECTOR('',#382,1000.);
#177=EDGE_LOOP('',(#33,#34,#35,#36));
#178=EDGE_LOOP('',(#37,#38,#39,#40,#41,#42,#43,#44));
#179=EDGE_LOOP('',(#45,#46,#47,#48));
#180=EDGE_LOOP('',(#49,#50,#51,#52,#53,#54,#55,#56));
#181=EDGE_LOOP('',(#57));
#182=EDGE_LOOP('',(#58,#59,#60,#61));
#183=EDGE_LOOP('',(#62));
#184=EDGE_LOOP('',(#63,#64,#65,#66));
#185=EDGE_LOOP('',(#67,#68,#69,#70));
#186=EDGE_LOOP('',(#71,#72,#73,#74));
#187=EDGE_LOOP('',(#75,#76,#77,#78));
#188=EDGE_LOOP('',(#79,#80,#81,#82));
#189=EDGE_LOOP('',(#83));
#190=EDGE_LOOP('',(#84));
#191=EDGE_LOOP('',(#85));
#192=EDGE_LOOP('',(#86));
#193=EDGE_LOOP('',(#87));
#194=EDGE_LOOP('',(#88));
#195=FACE_BOUND('',#177,.T.);
#196=FACE_BOUND('',#178,.T.);
#197=FACE_BOUND('',#179,.T.);
#198=FACE_BOUND('',#180,.T.);
#199=FACE_BOUND('',#181,.T.);
#200=FACE_BOUND('',#182,.T.);
#201=FACE_BOUND('',#183,.T.);
#202=FACE_BOUND('',#184,.T.);
#203=FACE_BOUND('',#185,.T.);
#204=FACE_BOUND('',#186,.T.);
#205=FACE_BOUND('',#187,.T.);
#206=FACE_BOUND('',#188,.T.);
#207=FACE_BOUND('',#189,.T.);
#208=FACE_BOUND('',#190,.T.);
#209=FACE_BOUND('',#191,.T.);
#210=FACE_BOUND('',#192,.T.);
#211=FACE_BOUND('',#193,.T.);
#212=FACE_BOUND('',#194,.T.);
#213=PLANE('',#332);
#214=PLANE('',#333);
#215=PLANE('',#334);
#216=PLANE('',#335);
#217=PLANE('',#336);
#218=PLANE('',#339);
#219=PLANE('',#344);
#220=PLANE('',#347);
#221=STYLED_ITEM('',(#234),#314);
#222=STYLED_ITEM('',(#235),#315);
#223=STYLED_ITEM('',(#236),#316);
#224=STYLED_ITEM('',(#237),#317);
#225=STYLED_ITEM('',(#238),#318);
#226=STYLED_ITEM('',(#239),#319);
#227=STYLED_ITEM('',(#240),#320);
#228=STYLED_ITEM('',(#241),#321);
#229=STYLED_ITEM('',(#242),#322);
#230=STYLED_ITEM('',(#243),#323);
#231=STYLED_ITEM('',(#244),#324);
#232=STYLED_ITEM('',(#245),#325);
#233=STYLED_ITEM('',(#246),#326);
#234=PRESENTATION_STYLE_ASSIGNMENT((#247));
#235=PRESENTATION_STYLE_ASSIGNMENT((#248));
#236=PRESENTATION_STYLE_ASSIGNMENT((#249));
#237=PRESENTATION_STYLE_ASSIGNMENT((#250));
#238=PRESENTATION_STYLE_ASSIGNMENT((#251));
#239=PRESENTATION_STYLE_ASSIGNMENT((#252));
#240=PRESENTATION_STYLE_ASSIGNMENT((#253));
#241=PRESENTATION_STYLE_ASSIGNMENT((#254));
#242=PRESENTATION_STYLE_ASSIGNMENT((#255));
#243=PRESENTATION_STYLE_ASSIGNMENT((#256));
#244=PRESENTATION_STYLE_ASSIGNMENT((#257));
#245=PRESENTATION_STYLE_ASSIGNMENT((#258));
#246=PRESENTATION_STYLE_ASSIGNMENT((#259));
#247=SURFACE_STYLE_USAGE(.BOTH.,#260);
#248=SURFACE_STYLE_USAGE(.BOTH.,#261);
#249=SURFACE_STYLE_USAGE(.BOTH.,#262);
#250=SURFACE_STYLE_USAGE(.BOTH.,#263);
#251=SURFACE_STYLE_USAGE(.BOTH.,#264);
#252=SURFACE_STYLE_USAGE(.BOTH.,#265);
#253=SURFACE_STYLE_USAGE(.BOTH.,#266);
#254=SURFACE_STYLE_USAGE(.BOTH.,#267);
#255=SURFACE_STYLE_USAGE(.BOTH.,#268);
#256=SURFACE_STYLE_USAGE(.BOTH.,#269);
#257=SURFACE_STYLE_USAGE(.BOTH.,#270);
#258=SURFACE_STYLE_USAGE(.BOTH.,#271);
#259=SURFACE_STYLE_USAGE(.BOTH.,#272);
#260=SURFACE_SIDE_STYLE('',(#273));
#261=SURFACE_SIDE_STYLE('',(#274));
#262=SURFACE_SIDE_STYLE('',(#275));
#263=SURFACE_SIDE_STYLE('',(#276));
#264=SURFACE_SIDE_STYLE('',(#277));
#265=SURFACE_SIDE_STYLE('',(#278));
#266=SURFACE_SIDE_STYLE('',(#279));
#267=SURFACE_SIDE_STYLE('',(#280));
#268=SURFACE_SIDE_STYLE('',(#281));
#269=SURFACE_SIDE_STYLE('',(#282));
#270=SURFACE_SIDE_STYLE('',(#283));
#271=SURFACE_SIDE_STYLE('',(#284));
#272=SURFACE_SIDE_STYLE('',(#285));
#273=SURFACE_STYLE_FILL_AREA(#286);
#274=SURFACE_STYLE_FILL_AREA(#287);
#275=SURFACE_STYLE_FILL_AREA(#288);
#276=SURFACE_STYLE_FILL_AREA(#289);
#277=SURFACE_STYLE_FILL_AREA(#290);
#278=SURFACE_STYLE_FILL_AREA(#291);
#279=SURFACE_STYLE_FILL_AREA(#292);
#280=SURFACE_STYLE_FILL_AREA(#293);
#281=SURFACE_STYLE_FILL_AREA(#294);
#282=SURFACE_STYLE_FILL_AREA(#295);
#283=SURFACE_STYLE_FILL_AREA(#296);
#284=SURFACE_STYLE_FILL_AREA(#297);
#285=SURFACE_STYLE_FILL_AREA(#298);
#286=FILL_AREA_STYLE('',(#299));
#287=FILL_AREA_STYLE('',(#300));
#288=FILL_AREA_STYLE('',(#301));
#289=FILL_AREA_STYLE('',(#302));
#290=FILL_AREA_STYLE('',(#303));
#291=FILL_AREA_STYLE('',(#304));
#292=FILL_AREA_STYLE('',(#305));
#293=FILL_AREA_STYLE('',(#306));
#294=FILL_AREA_STYLE('',(#307));
#295=FILL_AREA_STYLE('',(#308));
#296=FILL_AREA_STYLE('',(#309));
#297=FILL_AREA_STYLE('',(#310));
#298=FILL_AREA_STYLE('',(#311));
#299=FILL_AREA_STYLE_COLOUR('',#312);
#300=FILL_AREA_STYLE_COLOUR('',#312);
#301=FILL_AREA_STYLE_COLOUR('',#312);
#302=FILL_AREA_STYLE_COLOUR('',#312);
#303=FILL_AREA_STYLE_COLOUR('',#312);
#304=FILL_AREA_STYLE_COLOUR('',#312);
#305=FILL_AREA_STYLE_COLOUR('',#312);
#306=FILL_AREA_STYLE_COLOUR('',#312);
#307=FILL_AREA_STYLE_COLOUR('',#312);
#308=FILL_AREA_STYLE_COLOUR('',#312);
#309=FILL_AREA_STYLE_COLOUR('',#313);
#310=FILL_AREA_STYLE_COLOUR('',#312);
#311=FILL_AREA_STYLE_COLOUR('',#312);
#312=COLOUR_RGB('',0.550000011920929,0.311243504285812,0.21841649711132);
#313=COLOUR_RGB('',0.1875,0.75,0.581249892711639);
#314=ADVANCED_FACE('',(#195),#213,.T.);
#315=ADVANCED_FACE('',(#196),#214,.T.);
#316=ADVANCED_FACE('',(#197),#215,.T.);
#317=ADVANCED_FACE('',(#198),#216,.T.);
#318=ADVANCED_FACE('',(#199,#200),#217,.F.);
#319=ADVANCED_FACE('',(#201,#202),#218,.T.);
#320=ADVANCED_FACE('',(#203),#22,.F.);
#321=ADVANCED_FACE('',(#204),#219,.T.);
#322=ADVANCED_FACE('',(#205),#23,.F.);
#323=ADVANCED_FACE('',(#206),#220,.T.);
#324=ADVANCED_FACE('',(#207,#208),#24,.F.);
#325=ADVANCED_FACE('',(#209,#210),#20,.F.);
#326=ADVANCED_FACE('',(#211,#212),#21,.F.);
#327=CLOSED_SHELL('',(#314,#315,#316,#317,#318,#319,#320,#321,#322,#323,
#324,#325,#326));
#328=MANIFOLD_SOLID_BREP('',#327);
#329=SHAPE_DEFINITION_REPRESENTATION(#485,#330);
#330=SHAPE_REPRESENTATION('746630200',(#331),#480);
#331=AXIS2_PLACEMENT_3D('',#417,#353,#354);
#332=AXIS2_PLACEMENT_3D('',#418,#355,#356);
#333=AXIS2_PLACEMENT_3D('',#427,#361,#362);
#334=AXIS2_PLACEMENT_3D('',#441,#370,#371);
#335=AXIS2_PLACEMENT_3D('',#447,#375,#376);
#336=AXIS2_PLACEMENT_3D('',#458,#383,#384);
#337=AXIS2_PLACEMENT_3D('',#459,#385,#386);
#338=AXIS2_PLACEMENT_3D('',#461,#387,#388);
#339=AXIS2_PLACEMENT_3D('',#462,#389,#390);
#340=AXIS2_PLACEMENT_3D('',#463,#391,#392);
#341=AXIS2_PLACEMENT_3D('',#465,#393,#394);
#342=AXIS2_PLACEMENT_3D('',#466,#395,#396);
#343=AXIS2_PLACEMENT_3D('',#467,#397,#398);
#344=AXIS2_PLACEMENT_3D('',#468,#399,#400);
#345=AXIS2_PLACEMENT_3D('',#469,#401,#402);
#346=AXIS2_PLACEMENT_3D('',#470,#403,#404);
#347=AXIS2_PLACEMENT_3D('',#471,#405,#406);
#348=AXIS2_PLACEMENT_3D('',#472,#407,#408);
#349=AXIS2_PLACEMENT_3D('',#473,#409,#410);
#350=AXIS2_PLACEMENT_3D('',#475,#411,#412);
#351=AXIS2_PLACEMENT_3D('',#477,#413,#414);
#352=AXIS2_PLACEMENT_3D('',#478,#415,#416);
#353=DIRECTION('',(0.,0.,1.));
#354=DIRECTION('',(1.,0.,0.));
#355=DIRECTION('',(-1.73472347597681E-16,0.,1.));
#356=DIRECTION('',(1.,0.,1.73472347597681E-16));
#357=DIRECTION('',(0.,1.,0.));
#358=DIRECTION('',(1.,0.,0.));
#359=DIRECTION('',(0.,1.,0.));
#360=DIRECTION('',(-1.,0.,0.));
#361=DIRECTION('',(1.,0.,0.));
#362=DIRECTION('',(0.,0.,-1.));
#363=DIRECTION('',(0.,1.,0.));
#364=DIRECTION('',(0.,0.,-1.));
#365=DIRECTION('',(0.,0.,1.));
#366=DIRECTION('',(0.,-1.,0.));
#367=DIRECTION('',(0.,0.,-1.));
#368=DIRECTION('',(0.,1.,0.));
#369=DIRECTION('',(0.,0.,-1.));
#370=DIRECTION('',(1.22464679914735E-16,0.,-1.));
#371=DIRECTION('',(-1.,0.,-1.22464679914735E-16));
#372=DIRECTION('',(-1.,0.,-1.22464679914735E-16));
#373=DIRECTION('',(-1.,0.,-1.22464679914735E-16));
#374=DIRECTION('',(0.,1.,0.));
#375=DIRECTION('',(-1.,0.,0.));
#376=DIRECTION('',(0.,0.,1.));
#377=DIRECTION('',(0.,1.,0.));
#378=DIRECTION('',(0.,0.,1.));
#379=DIRECTION('',(0.,0.,1.));
#380=DIRECTION('',(0.,-1.,0.));
#381=DIRECTION('',(0.,0.,-1.));
#382=DIRECTION('',(0.,0.,1.));
#383=DIRECTION('',(0.,1.,0.));
#384=DIRECTION('',(0.,0.,1.));
#385=DIRECTION('',(0.,1.,0.));
#386=DIRECTION('',(0.,0.,1.));
#387=DIRECTION('',(0.,-1.,0.));
#388=DIRECTION('',(1.,0.,0.));
#389=DIRECTION('',(0.,1.,0.));
#390=DIRECTION('',(0.,0.,1.));
#391=DIRECTION('',(0.,1.,0.));
#392=DIRECTION('',(0.,0.,1.));
#393=DIRECTION('',(0.,1.,0.));
#394=DIRECTION('',(1.,0.,0.));
#395=DIRECTION('',(0.,-1.,0.));
#396=DIRECTION('',(0.,0.,-1.));
#397=DIRECTION('',(0.,-1.,0.));
#398=DIRECTION('',(1.,0.,0.));
#399=DIRECTION('',(0.,-1.,0.));
#400=DIRECTION('',(0.,0.,-1.));
#401=DIRECTION('',(0.,1.,0.));
#402=DIRECTION('',(0.,0.,1.));
#403=DIRECTION('',(0.,1.,0.));
#404=DIRECTION('',(1.,0.,0.));
#405=DIRECTION('',(0.,1.,0.));
#406=DIRECTION('',(0.,0.,1.));
#407=DIRECTION('',(0.,1.,0.));
#408=DIRECTION('',(0.,0.,-1.));
#409=DIRECTION('',(0.,1.,0.));
#410=DIRECTION('',(0.,0.,1.));
#411=DIRECTION('',(0.,1.,0.));
#412=DIRECTION('',(0.,0.,1.));
#413=DIRECTION('',(0.,1.,0.));
#414=DIRECTION('',(0.,0.,1.));
#415=DIRECTION('',(0.,-1.,0.));
#416=DIRECTION('',(0.,0.,-1.));
#417=CARTESIAN_POINT('',(0.,0.,0.));
#418=CARTESIAN_POINT('',(-2.5,-3.5,5.));
#419=CARTESIAN_POINT('',(2.5,-3.5,5.));
#420=CARTESIAN_POINT('',(2.5,-3.,5.));
#421=CARTESIAN_POINT('',(2.5,3.,5.));
#422=CARTESIAN_POINT('',(-2.5,3.,5.));
#423=CARTESIAN_POINT('',(-2.5,3.,5.));
#424=CARTESIAN_POINT('',(-2.5,-3.5,5.));
#425=CARTESIAN_POINT('',(-2.5,-3.,5.));
#426=CARTESIAN_POINT('',(-2.5,-3.,5.));
#427=CARTESIAN_POINT('',(2.5,-3.5,5.));
#428=CARTESIAN_POINT('',(2.5,3.,4.50074566965906));
#429=CARTESIAN_POINT('',(2.5,3.,4.50074566965906));
#430=CARTESIAN_POINT('',(2.5,3.5,4.50074566965906));
#431=CARTESIAN_POINT('',(2.5,3.,5.));
#432=CARTESIAN_POINT('',(2.5,-3.,5.));
#433=CARTESIAN_POINT('',(2.49999999999996,-3.,4.50074566965906));
#434=CARTESIAN_POINT('',(2.49999999999996,-3.,4.50074566965906));
#435=CARTESIAN_POINT('',(2.49999999999996,-3.5,4.50074566965906));
#436=CARTESIAN_POINT('',(2.5,-3.5,5.));
#437=CARTESIAN_POINT('',(2.5,-3.5,-3.04324729588117E-16));
#438=CARTESIAN_POINT('',(2.5,-3.5,-3.04324729588117E-16));
#439=CARTESIAN_POINT('',(2.5,3.5,-3.04324729588117E-16));
#440=CARTESIAN_POINT('',(2.5,3.5,5.));
#441=CARTESIAN_POINT('',(2.5,-3.5,-3.04324729588117E-16));
#442=CARTESIAN_POINT('',(2.5,3.5,-3.04324729588117E-16));
#443=CARTESIAN_POINT('',(-2.5,3.5,-9.16648129161794E-16));
#444=CARTESIAN_POINT('',(2.5,-3.5,-3.04324729588117E-16));
#445=CARTESIAN_POINT('',(-2.5,-3.5,-9.16648129161794E-16));
#446=CARTESIAN_POINT('',(-2.5,-3.5,-9.16648129161794E-16));
#447=CARTESIAN_POINT('',(-2.5,-3.5,-9.16648129161794E-16));
#448=CARTESIAN_POINT('',(-2.50000000000002,3.,4.50074566965906));
#449=CARTESIAN_POINT('',(-2.50000000000002,3.,4.50074566965906));
#450=CARTESIAN_POINT('',(-2.50000000000002,3.5,4.50074566965906));
#451=CARTESIAN_POINT('',(-2.5,3.5,-9.16648129161794E-16));
#452=CARTESIAN_POINT('',(-2.5,-3.5,-9.16648129161794E-16));
#453=CARTESIAN_POINT('',(-2.5,-3.5,4.50074566965906));
#454=CARTESIAN_POINT('',(-2.5,-3.,4.50074566965906));
#455=CARTESIAN_POINT('',(-2.5,-3.,4.50074566965906));
#456=CARTESIAN_POINT('',(-2.5,-3.,5.));
#457=CARTESIAN_POINT('',(-2.5,3.,4.50074566965906));
#458=CARTESIAN_POINT('',(0.,-3.5,0.));
#459=CARTESIAN_POINT('',(4.33680868994202E-16,-3.5,1.38));
#460=CARTESIAN_POINT('',(4.33680868994202E-16,-3.5,2.6635));
#461=CARTESIAN_POINT('',(0.,-3.5,54.4382065582545));
#462=CARTESIAN_POINT('',(0.,3.5,0.));
#463=CARTESIAN_POINT('',(4.33680868994202E-16,3.5,1.38));
#464=CARTESIAN_POINT('',(4.33680868994202E-16,3.5,2.6635));
#465=CARTESIAN_POINT('',(0.,3.5,54.4382065582545));
#466=CARTESIAN_POINT('',(0.,-3.,54.4382065582545));
#467=CARTESIAN_POINT('',(0.,-3.,54.4382065582545));
#468=CARTESIAN_POINT('',(0.,-3.,54.4382065582545));
#469=CARTESIAN_POINT('',(0.,3.,54.4382065582545));
#470=CARTESIAN_POINT('',(0.,3.,54.4382065582545));
#471=CARTESIAN_POINT('',(0.,3.,54.4382065582545));
#472=CARTESIAN_POINT('',(4.33680868994202E-16,-3.5,1.38));
#473=CARTESIAN_POINT('',(4.33680868994202E-16,3.,1.38));
#474=CARTESIAN_POINT('',(4.33680868994202E-16,3.,2.1635));
#475=CARTESIAN_POINT('',(4.33680868994202E-16,-3.,1.38));
#476=CARTESIAN_POINT('',(4.33680868994202E-16,-3.,2.1635));
#477=CARTESIAN_POINT('',(4.33680868994202E-16,3.,1.38));
#478=CARTESIAN_POINT('',(4.33680868994202E-16,-3.5,1.38));
#479=MECHANICAL_DESIGN_GEOMETRIC_PRESENTATION_REPRESENTATION('',(#221,#222,
#223,#224,#225,#226,#227,#228,#229,#230,#231,#232,#233),#480);
#480=(
GEOMETRIC_REPRESENTATION_CONTEXT(3)
GLOBAL_UNCERTAINTY_ASSIGNED_CONTEXT((#481))
GLOBAL_UNIT_ASSIGNED_CONTEXT((#484,#483,#482))
REPRESENTATION_CONTEXT('746630200','TOP_LEVEL_ASSEMBLY_PART')
);
#481=UNCERTAINTY_MEASURE_WITH_UNIT(LENGTH_MEASURE(0.005),#484,
'DISTANCE_ACCURACY_VALUE','Maximum Tolerance applied to model');
#482=(
NAMED_UNIT(*)
SI_UNIT($,.STERADIAN.)
SOLID_ANGLE_UNIT()
);
#483=(
NAMED_UNIT(*)
PLANE_ANGLE_UNIT()
SI_UNIT($,.RADIAN.)
);
#484=(
LENGTH_UNIT()
NAMED_UNIT(*)
SI_UNIT(.MILLI.,.METRE.)
);
#485=PRODUCT_DEFINITION_SHAPE('','',#486);
#486=PRODUCT_DEFINITION('','',#488,#487);
#487=PRODUCT_DEFINITION_CONTEXT('',#494,'design');
#488=PRODUCT_DEFINITION_FORMATION_WITH_SPECIFIED_SOURCE('','',#490,
 .NOT_KNOWN.);
#489=PRODUCT_RELATED_PRODUCT_CATEGORY('','',(#490));
#490=PRODUCT('746630200','746630200','746630200',(#492));
#491=PRODUCT_CATEGORY('','');
#492=PRODUCT_CONTEXT('',#494,'mechanical');
#493=APPLICATION_PROTOCOL_DEFINITION('international standard',
'automotive_design',2010,#494);
#494=APPLICATION_CONTEXT(
'core data for automotive mechanical design processes');
ENDSEC;
END-ISO-10303-21;
