C                                                                       S      1
1H,,1H;,10HSolid Edge,20H74479287xxx_1008.igs,27HBy Siemens PLM IncorporG      1
ated,26HXPlus GENERIC/IGES 17.0.49,32,38, 6,308,15,7HUnknown,1.000,2,2HMG      2
M,1,1.000,15H20151118.104901,1.0e-005,0.00,6HAuthor,5HTitle,11,0,15H2015G      3
1118.104901;                                                            G      4
     314       1       0       1       0       0       0       000010001D      1
     314       1       0       2       0       0       0               0D      2
     128       3       0       1       0       0       0       000010001D      3
     128       1       0       2       0       0       0               0D      4
     126       5       0       1       0       0       0       000010001D      5
     126       1       0       2       0       0       0               0D      6
     502       7       0       1       0       0       0       000010001D      7
     502       1       0       2       1       0       0               0D      8
     126       9       0       1       0       0       0       000010001D      9
     126       1       0       2       0       0       0               0D     10
     126      11       0       1       0       0       0       000010001D     11
     126       1       0       2       0       0       0               0D     12
     126      13       0       1       0       0       0       000010001D     13
     126       1       0       2       0       0       0               0D     14
     126      15       0       1       0       0       0       000010001D     15
     126       1       0       2       0       0       0               0D     16
     126      17       0       1       0       0       0       000010001D     17
     126       1       0       2       0       0       0               0D     18
     126      19       0       1       0       0       0       000010001D     19
     126       1       0       2       0       0       0               0D     20
     126      21       0       1       0       0       0       000010001D     21
     126       1       0       2       0       0       0               0D     22
     126      23       0       1       0       0       0       000010001D     23
     126       1       0       2       0       0       0               0D     24
     126      25       0       1       0       0       0       000010001D     25
     126       1       0       2       0       0       0               0D     26
     126      27       0       1       0       0       0       000010001D     27
     126       1       0       2       0       0       0               0D     28
     126      29       0       1       0       0       0       000010001D     29
     126       1       0       2       0       0       0               0D     30
     504      31       0       1       0       0       0       000010001D     31
     504       1       0       3       1       0       0               0D     32
     508      34       0       1       0       0       0       000010001D     33
     508       1       0       1       1       0       0               0D     34
     510      35       0       1       0       0       0       000010001D     35
     510       1      -1       1       1       0       0               0D     36
     314      36       0       1       0       0       0       000010001D     37
     314       1       0       2       0       0       0               0D     38
     128      38       0       1       0       0       0       000010001D     39
     128       1       0       2       0       0       0               0D     40
     508      40       0       1       0       0       0       000010001D     41
     508       1       0       1       1       0       0               0D     42
     510      41       0       1       0       0       0       000010001D     43
     510       1     -37       1       1       0       0               0D     44
     314      42       0       1       0       0       0       000010001D     45
     314       1       0       2       0       0       0               0D     46
     128      44       0       1       0       0       0       000010001D     47
     128       1       0       3       0       0       0               0D     48
     508      47       0       1       0       0       0       000010001D     49
     508       1       0       1       1       0       0               0D     50
     510      48       0       1       0       0       0       000010001D     51
     510       1     -45       1       1       0       0               0D     52
     314      49       0       1       0       0       0       000010001D     53
     314       1       0       2       0       0       0               0D     54
     128      51       0       1       0       0       0       000010001D     55
     128       1       0       2       0       0       0               0D     56
     508      53       0       1       0       0       0       000010001D     57
     508       1       0       1       1       0       0               0D     58
     510      54       0       1       0       0       0       000010001D     59
     510       1     -53       1       1       0       0               0D     60
     314      55       0       1       0       0       0       000010001D     61
     314       1       0       2       0       0       0               0D     62
     128      57       0       1       0       0       0       000010001D     63
     128       1       0       2       0       0       0               0D     64
     508      59       0       1       0       0       0       000010001D     65
     508       1       0       1       1       0       0               0D     66
     510      60       0       1       0       0       0       000010001D     67
     510       1     -61       1       1       0       0               0D     68
     314      61       0       1       0       0       0       000010001D     69
     314       1       0       2       0       0       0               0D     70
     128      63       0       1       0       0       0       000010001D     71
     128       1       0       2       0       0       0               0D     72
     508      65       0       1       0       0       0       000010001D     73
     508       1       0       1       1       0       0               0D     74
     510      66       0       1       0       0       0       000010001D     75
     510       1     -69       1       1       0       0               0D     76
     514      67       0       1       0       0       0       000010001D     77
     514       1       0       1       1       0       0               0D     78
     186      68       0       1       0       0       0       000010001D     79
     186       1       0       1       0       0       0 Ferrite       0D     80
     308      69       0       1       0       0       0       000010001D     81
     308       1       0       1       0       0       0               0D     82
     408      70       0       1       0       0       0       000010001D     83
     408       1       0       1       0       0       0               0D     84
     124      71       0       1       0       0       0       000010001D     85
     124       1       0       1       0       0       0               0D     86
     314      72       0       1       0       0       0       000010001D     87
     314       1       0       2       0       0       0               0D     88
     128      74       0       1       0       0       0       000010001D     89
     128       1       0       2       0       0       0               0D     90
     126      76       0       1       0       0       0       000010001D     91
     126       1       0       2       0       0       0               0D     92
     502      78       0       1       0       0       0       000010001D     93
     502       1       0       2       1       0       0               0D     94
     126      80       0       1       0       0       0       000010001D     95
     126       1       0       1       0       0       0               0D     96
     126      81       0       1       0       0       0       000010001D     97
     126       1       0       1       0       0       0               0D     98
     126      82       0       1       0       0       0       000010001D     99
     126       1       0       1       0       0       0               0D    100
     126      83       0       1       0       0       0       000010001D    101
     126       1       0       2       0       0       0               0D    102
     126      85       0       1       0       0       0       000010001D    103
     126       1       0       2       0       0       0               0D    104
     126      87       0       1       0       0       0       000010001D    105
     126       1       0       2       0       0       0               0D    106
     126      89       0       1       0       0       0       000010001D    107
     126       1       0       2       0       0       0               0D    108
     126      91       0       1       0       0       0       000010001D    109
     126       1       0       1       0       0       0               0D    110
     126      92       0       1       0       0       0       000010001D    111
     126       1       0       1       0       0       0               0D    112
     126      93       0       1       0       0       0       000010001D    113
     126       1       0       1       0       0       0               0D    114
     126      94       0       1       0       0       0       000010001D    115
     126       1       0       1       0       0       0               0D    116
     504      95       0       1       0       0       0       000010001D    117
     504       1       0       3       1       0       0               0D    118
     508      98       0       1       0       0       0       000010001D    119
     508       1       0       1       1       0       0               0D    120
     510      99       0       1       0       0       0       000010001D    121
     510       1     -87       1       1       0       0               0D    122
     314     100       0       1       0       0       0       000010001D    123
     314       1       0       2       0       0       0               0D    124
     128     102       0       1       0       0       0       000010001D    125
     128       1       0       2       0       0       0               0D    126
     508     104       0       1       0       0       0       000010001D    127
     508       1       0       1       1       0       0               0D    128
     510     105       0       1       0       0       0       000010001D    129
     510       1    -123       1       1       0       0               0D    130
     314     106       0       1       0       0       0       000010001D    131
     314       1       0       2       0       0       0               0D    132
     128     108       0       1       0       0       0       000010001D    133
     128       1       0       2       0       0       0               0D    134
     508     110       0       1       0       0       0       000010001D    135
     508       1       0       1       1       0       0               0D    136
     510     111       0       1       0       0       0       000010001D    137
     510       1    -131       1       1       0       0               0D    138
     314     112       0       1       0       0       0       000010001D    139
     314       1       0       2       0       0       0               0D    140
     128     114       0       1       0       0       0       000010001D    141
     128       1       0       2       0       0       0               0D    142
     508     116       0       1       0       0       0       000010001D    143
     508       1       0       1       1       0       0               0D    144
     510     117       0       1       0       0       0       000010001D    145
     510       1    -139       1       1       0       0               0D    146
     314     118       0       1       0       0       0       000010001D    147
     314       1       0       2       0       0       0               0D    148
     128     120       0       1       0       0       0       000010001D    149
     128       1       0       2       0       0       0               0D    150
     508     122       0       1       0       0       0       000010001D    151
     508       1       0       1       1       0       0               0D    152
     510     123       0       1       0       0       0       000010001D    153
     510       1    -147       1       1       0       0               0D    154
     314     124       0       1       0       0       0       000010001D    155
     314       1       0       2       0       0       0               0D    156
     128     126       0       1       0       0       0       000010001D    157
     128       1       0       2       0       0       0               0D    158
     508     128       0       1       0       0       0       000010001D    159
     508       1       0       1       1       0       0               0D    160
     510     129       0       1       0       0       0       000010001D    161
     510       1    -155       1       1       0       0               0D    162
     514     130       0       1       0       0       0       000010001D    163
     514       1       0       1       1       0       0               0D    164
     186     131       0       1       0       0       0       000010001D    165
     186       1       0       1       0       0       0 Contact       0D    166
     308     132       0       1       0       0       0       000010001D    167
     308       1       0       1       0       0       0               0D    168
     408     133       0       1       0       0      85       000010001D    169
     408       1       0       1       0       0       0               0D    170
     124     134       0       1       0       0       0       000010001D    171
     124       1       0       1       0       0       0               0D    172
     408     135       0       1       0       0     171       000010001D    173
     408       1       0       1       0       0       0               0D    174
     308     136       0       1       0       0       0       000010001D    175
     308       1       0       1       0       0       0               0D    176
     408     137       0       1       0       0       0       000000001D    177
     408       1       0       1       0       0       0               0D    178
314,11.9999997317791,11.9999997317791,11.9999997317791,10HMixedC       1P      1
olor;                                                                  1P      2
128,1,1,1,1,0,0,1,0,0,0.,0.,1.,1.,0.,0.,1.,1.,1.,1.,1.,1.,-1.,         3P      3
0.65,0.5,-1.,0.65,-0.5,1.,0.65,0.5,1.,0.65,-0.5,0.,1.,0.,1.;           3P      4
126,1,1,0,0,1,0,0.,0.,1.,1.,1.,1.,-1.,0.65,0.5,-1.,0.65,-0.5,0.,       5P      5
1.;                                                                    5P      6
502,8,1.,0.65,-0.5,-1.,-0.65,-0.5,1.,-0.65,0.5,-1.,0.65,-0.5,          7P      7
-1.,-0.65,0.5,1.,0.65,0.5,-1.,0.65,0.5,1.,-0.65,-0.5;                  7P      8
126,1,1,0,0,1,0,0.,0.,1.,1.,1.,1.,-1.,-0.65,0.5,-1.,-0.65,-0.5,        9P      9
0.,1.;                                                                 9P     10
126,1,1,0,0,1,0,0.,0.,1.,1.,1.,1.,1.,-0.65,0.5,1.,-0.65,-0.5,0.,      11P     11
1.;                                                                   11P     12
126,1,1,0,0,1,0,0.,0.,1.,1.,1.,1.,1.,0.65,0.5,1.,0.65,-0.5,0.,        13P     13
1.;                                                                   13P     14
126,1,1,0,0,1,0,0.,0.,1.,1.,1.,1.,1.,-0.65,0.5,1.,0.65,0.5,0.,        15P     15
1.;                                                                   15P     16
126,1,1,0,0,1,0,0.,0.,1.,1.,1.,1.,-1.,-0.65,0.5,1.,-0.65,0.5,0.,      17P     17
1.;                                                                   17P     18
126,1,1,0,0,1,0,0.,0.,1.,1.,1.,1.,-1.,0.65,0.5,-1.,-0.65,0.5,0.,      19P     19
1.;                                                                   19P     20
126,1,1,0,0,1,0,0.,0.,1.,1.,1.,1.,1.,0.65,0.5,-1.,0.65,0.5,0.,        21P     21
1.;                                                                   21P     22
126,1,1,0,0,1,0,0.,0.,1.,1.,1.,1.,1.,-0.65,-0.5,1.,0.65,-0.5,0.,      23P     23
1.;                                                                   23P     24
126,1,1,0,0,1,0,0.,0.,1.,1.,1.,1.,-1.,-0.65,-0.5,1.,-0.65,-0.5,       25P     25
0.,1.;                                                                25P     26
126,1,1,0,0,1,0,0.,0.,1.,1.,1.,1.,-1.,0.65,-0.5,-1.,-0.65,-0.5,       27P     27
0.,1.;                                                                27P     28
126,1,1,0,0,1,0,0.,0.,1.,1.,1.,1.,1.,0.65,-0.5,-1.,0.65,-0.5,0.,      29P     29
1.;                                                                   29P     30
504,12,5,7,7,7,4,9,7,5,7,2,11,7,3,7,8,13,7,6,7,1,15,7,3,7,6,17,       31P     31
7,5,7,3,19,7,7,7,5,21,7,6,7,7,23,7,8,7,1,25,7,2,7,8,27,7,4,7,2,       31P     32
29,7,1,7,4;                                                           31P     33
508,4,0,31,12,1,0,0,31,1,0,0,0,31,8,0,0,0,31,4,1,0;                   33P     34
510,3,1,1,33;                                                         35P     35
314,11.9999997317791,11.9999997317791,11.9999997317791,10HMixedC      37P     36
olor;                                                                 37P     37
128,1,1,1,1,0,0,1,0,0,0.,0.,1.,1.,0.,0.,1.,1.,1.,1.,1.,1.,-1.,        39P     38
-0.65,-0.5,-1.,0.65,-0.5,-1.,-0.65,0.5,-1.,0.65,0.5,0.,1.,0.,1.;      39P     39
508,4,0,31,11,1,0,0,31,2,0,0,0,31,7,0,0,0,31,1,1,0;                   41P     40
510,39,1,1,41;                                                        43P     41
314,11.9999997317791,11.9999997317791,11.9999997317791,10HMixedC      45P     42
olor;                                                                 45P     43
128,1,1,1,1,0,0,1,0,0,0.,0.,1.,1.,0.,0.,1.,1.,1.,1.,1.,1.,1.,         47P     44
-0.65,-0.5,-1.,-0.65,-0.5,1.,-0.65,0.5,-1.,-0.65,0.5,0.,1.,0.,        47P     45
1.;                                                                   47P     46
508,4,0,31,10,1,0,0,31,3,0,0,0,31,6,0,0,0,31,2,1,0;                   49P     47
510,47,1,1,49;                                                        51P     48
314,11.9999997317791,11.9999997317791,11.9999997317791,10HMixedC      53P     49
olor;                                                                 53P     50
128,1,1,1,1,0,0,1,0,0,0.,0.,1.,1.,0.,0.,1.,1.,1.,1.,1.,1.,1.,         55P     51
0.65,-0.5,1.,-0.65,-0.5,1.,0.65,0.5,1.,-0.65,0.5,0.,1.,0.,1.;         55P     52
508,4,0,31,9,1,0,0,31,4,0,0,0,31,5,0,0,0,31,3,1,0;                    57P     53
510,55,1,1,57;                                                        59P     54
314,11.9999997317791,11.9999997317791,11.9999997317791,10HMixedC      61P     55
olor;                                                                 61P     56
128,1,1,1,1,0,0,1,0,0,0.,0.,1.,1.,0.,0.,1.,1.,1.,1.,1.,1.,-1.,        63P     57
-0.65,-0.5,1.,-0.65,-0.5,-1.,0.65,-0.5,1.,0.65,-0.5,0.,1.,0.,1.;      63P     58
508,4,0,31,12,0,0,0,31,9,0,0,0,31,10,0,0,0,31,11,0,0;                 65P     59
510,63,1,1,65;                                                        67P     60
314,11.9999997317791,11.9999997317791,11.9999997317791,10HMixedC      69P     61
olor;                                                                 69P     62
128,1,1,1,1,0,0,1,0,0,0.,0.,1.,1.,0.,0.,1.,1.,1.,1.,1.,1.,-1.,        71P     63
-0.65,0.5,1.,-0.65,0.5,-1.,0.65,0.5,1.,0.65,0.5,0.,1.,0.,1.;          71P     64
508,4,0,31,8,1,0,0,31,7,1,0,0,31,6,1,0,0,31,5,1,0;                    73P     65
510,71,1,1,73;                                                        75P     66
514,6,35,0,43,0,51,0,59,0,67,0,75,1;                                  77P     67
186,77,1,0;                                                           79P     68
308,0,7HDEFAULT,1,79;                                                 81P     69
408,81,0.,0.,0.,1.;                                                   83P     70
124,1.,0.,0.,0.00000000000001,0.,1.,0.,-0.65,0.,0.,1.,0.;             85P     71
314,69.9999988079071,69.9999988079071,69.9999988079071,10HMixedC      87P     72
olor;                                                                 87P     73
128,1,1,1,1,0,0,1,0,0,0.,0.,1.,1.,0.,0.,1.,1.,1.,1.,1.,1.,-1.,        89P     74
-0.6,0.5,-1.,-0.6,-0.5,-1.,0.,0.5,-1.,0.,-0.5,0.,1.,0.,1.;            89P     75
126,1,1,0,0,1,0,0.,0.,1.,1.,1.,1.,-1.,-0.6,-0.5,-1.,0.,-0.5,0.,       91P     76
1.;                                                                   91P     77
502,8,1.,-0.6,0.5,-1.,-0.6,0.5,-1.,-0.6,-0.5,1.,0.,-0.5,1.,-0.6,      93P     78
-0.5,-1.,0.,-0.5,1.,0.,0.5,-1.,0.,0.5;                                93P     79
126,1,1,0,0,1,0,0.,0.,1.,1.,1.,1.,1.,-0.6,-0.5,1.,0.,-0.5,0.,1.;      95P     80
126,1,1,0,0,1,0,0.,0.,1.,1.,1.,1.,1.,-0.6,0.5,1.,0.,0.5,0.,1.;        97P     81
126,1,1,0,0,1,0,0.,0.,1.,1.,1.,1.,-1.,-0.6,0.5,-1.,0.,0.5,0.,1.;      99P     82
126,1,1,0,0,1,0,0.,0.,1.,1.,1.,1.,1.,-0.6,0.5,-1.,-0.6,0.5,0.,       101P     83
1.;                                                                  101P     84
126,1,1,0,0,1,0,0.,0.,1.,1.,1.,1.,1.,-0.6,-0.5,1.,-0.6,0.5,0.,       103P     85
1.;                                                                  103P     86
126,1,1,0,0,1,0,0.,0.,1.,1.,1.,1.,-1.,-0.6,-0.5,1.,-0.6,-0.5,0.,     105P     87
1.;                                                                  105P     88
126,1,1,0,0,1,0,0.,0.,1.,1.,1.,1.,-1.,-0.6,0.5,-1.,-0.6,-0.5,0.,     107P     89
1.;                                                                  107P     90
126,1,1,0,0,1,0,0.,0.,1.,1.,1.,1.,1.,0.,0.5,-1.,0.,0.5,0.,1.;        109P     91
126,1,1,0,0,1,0,0.,0.,1.,1.,1.,1.,1.,0.,-0.5,1.,0.,0.5,0.,1.;        111P     92
126,1,1,0,0,1,0,0.,0.,1.,1.,1.,1.,-1.,0.,-0.5,1.,0.,-0.5,0.,1.;      113P     93
126,1,1,0,0,1,0,0.,0.,1.,1.,1.,1.,-1.,0.,0.5,-1.,0.,-0.5,0.,1.;      115P     94
504,12,91,93,3,93,6,95,93,5,93,4,97,93,1,93,7,99,93,2,93,8,101,      117P     95
93,1,93,2,103,93,5,93,1,105,93,3,93,5,107,93,2,93,3,109,93,7,93,     117P     96
8,111,93,4,93,7,113,93,6,93,4,115,93,8,93,6;                         117P     97
508,4,0,117,12,1,0,0,117,1,0,0,0,117,8,0,0,0,117,4,1,0;              119P     98
510,89,1,1,119;                                                      121P     99
314,69.9999988079071,69.9999988079071,69.9999988079071,10HMixedC     123P    100
olor;                                                                123P    101
128,1,1,1,1,0,0,1,0,0,0.,0.,1.,1.,0.,0.,1.,1.,1.,1.,1.,1.,-1.,       125P    102
-0.6,-0.5,1.,-0.6,-0.5,-1.,0.,-0.5,1.,0.,-0.5,0.,1.,0.,1.;           125P    103
508,4,0,117,11,1,0,0,117,2,0,0,0,117,7,0,0,0,117,1,1,0;              127P    104
510,125,1,1,127;                                                     129P    105
314,69.9999988079071,69.9999988079071,69.9999988079071,10HMixedC     131P    106
olor;                                                                131P    107
128,1,1,1,1,0,0,1,0,0,0.,0.,1.,1.,0.,0.,1.,1.,1.,1.,1.,1.,1.,        133P    108
-0.6,-0.5,1.,-0.6,0.5,1.,0.,-0.5,1.,0.,0.5,0.,1.,0.,1.;              133P    109
508,4,0,117,10,1,0,0,117,3,0,0,0,117,6,0,0,0,117,2,1,0;              135P    110
510,133,1,1,135;                                                     137P    111
314,69.9999988079071,69.9999988079071,69.9999988079071,10HMixedC     139P    112
olor;                                                                139P    113
128,1,1,1,1,0,0,1,0,0,0.,0.,1.,1.,0.,0.,1.,1.,1.,1.,1.,1.,1.,        141P    114
-0.6,0.5,-1.,-0.6,0.5,1.,0.,0.5,-1.,0.,0.5,0.,1.,0.,1.;              141P    115
508,4,0,117,9,1,0,0,117,4,0,0,0,117,5,0,0,0,117,3,1,0;               143P    116
510,141,1,1,143;                                                     145P    117
314,69.9999988079071,69.9999988079071,69.9999988079071,10HMixedC     147P    118
olor;                                                                147P    119
128,1,1,1,1,0,0,1,0,0,0.,0.,1.,1.,0.,0.,1.,1.,1.,1.,1.,1.,-1.,       149P    120
0.,0.5,-1.,0.,-0.5,1.,0.,0.5,1.,0.,-0.5,0.,1.,0.,1.;                 149P    121
508,4,0,117,12,0,0,0,117,9,0,0,0,117,10,0,0,0,117,11,0,0;            151P    122
510,149,1,1,151;                                                     153P    123
314,69.9999988079071,69.9999988079071,69.9999988079071,10HMixedC     155P    124
olor;                                                                155P    125
128,1,1,1,1,0,0,1,0,0,0.,0.,1.,1.,0.,0.,1.,1.,1.,1.,1.,1.,-1.,       157P    126
-0.6,0.5,-1.,-0.6,-0.5,1.,-0.6,0.5,1.,-0.6,-0.5,0.,1.,0.,1.;         157P    127
508,4,0,117,8,1,0,0,117,7,1,0,0,117,6,1,0,0,117,5,1,0;               159P    128
510,157,1,1,159;                                                     161P    129
514,6,121,0,129,0,137,0,145,0,153,0,161,1;                           163P    130
186,163,1,0;                                                         165P    131
308,0,7HDEFAULT,1,165;                                               167P    132
408,167,0.,0.,0.,1.;                                                 169P    133
124,1.,0.,-0.,0.,0.,-1.,0.,0.65,-0.,0.,-1.,0.;                       171P    134
408,167,0.,0.,0.,1.;                                                 173P    135
308,1,7HDEFAULT,3,83,169,173;                                        175P    136
408,175,0.,0.,0.,1.;                                                 177P    137
S      1G      4D    178P    137                                        T      1
