C                                                                       S      1
1H,,1H;,10HSolid Edge,20H74479262xxx_0603.igs,27HBy Siemens PLM IncorporG      1
ated,26HXPlus GENERIC/IGES 17.0.49,32,38, 6,308,15,7HUnknown,1.000,2,2HMG      2
M,1,1.000,15H20151118.104233,1.0e-005,0.00,6HAuthor,5HTitle,11,0,15H2015G      3
1118.104233;                                                            G      4
     314       1       0       1       0       0       0       000010001D      1
     314       1       0       2       0       0       0               0D      2
     128       3       0       1       0       0       0       000010001D      3
     128       1       0       2       0       0       0               0D      4
     126       5       0       1       0       0       0       000010001D      5
     126       1       0       2       0       0       0               0D      6
     502       7       0       1       0       0       0       000010001D      7
     502       1       0       2       1       0       0               0D      8
     126       9       0       1       0       0       0       000010001D      9
     126       1       0       2       0       0       0               0D     10
     126      11       0       1       0       0       0       000010001D     11
     126       1       0       2       0       0       0               0D     12
     126      13       0       1       0       0       0       000010001D     13
     126       1       0       2       0       0       0               0D     14
     126      15       0       1       0       0       0       000010001D     15
     126       1       0       2       0       0       0               0D     16
     126      17       0       1       0       0       0       000010001D     17
     126       1       0       2       0       0       0               0D     18
     126      19       0       1       0       0       0       000010001D     19
     126       1       0       2       0       0       0               0D     20
     126      21       0       1       0       0       0       000010001D     21
     126       1       0       2       0       0       0               0D     22
     126      23       0       1       0       0       0       000010001D     23
     126       1       0       2       0       0       0               0D     24
     126      25       0       1       0       0       0       000010001D     25
     126       1       0       2       0       0       0               0D     26
     126      27       0       1       0       0       0       000010001D     27
     126       1       0       2       0       0       0               0D     28
     126      29       0       1       0       0       0       000010001D     29
     126       1       0       2       0       0       0               0D     30
     504      31       0       1       0       0       0       000010001D     31
     504       1       0       3       1       0       0               0D     32
     508      34       0       1       0       0       0       000010001D     33
     508       1       0       1       1       0       0               0D     34
     510      35       0       1       0       0       0       000010001D     35
     510       1      -1       1       1       0       0               0D     36
     314      36       0       1       0       0       0       000010001D     37
     314       1       0       2       0       0       0               0D     38
     128      38       0       1       0       0       0       000010001D     39
     128       1       0       2       0       0       0               0D     40
     508      40       0       1       0       0       0       000010001D     41
     508       1       0       1       1       0       0               0D     42
     510      41       0       1       0       0       0       000010001D     43
     510       1     -37       1       1       0       0               0D     44
     314      42       0       1       0       0       0       000010001D     45
     314       1       0       2       0       0       0               0D     46
     128      44       0       1       0       0       0       000010001D     47
     128       1       0       2       0       0       0               0D     48
     508      46       0       1       0       0       0       000010001D     49
     508       1       0       1       1       0       0               0D     50
     510      47       0       1       0       0       0       000010001D     51
     510       1     -45       1       1       0       0               0D     52
     314      48       0       1       0       0       0       000010001D     53
     314       1       0       2       0       0       0               0D     54
     128      50       0       1       0       0       0       000010001D     55
     128       1       0       2       0       0       0               0D     56
     508      52       0       1       0       0       0       000010001D     57
     508       1       0       1       1       0       0               0D     58
     510      53       0       1       0       0       0       000010001D     59
     510       1     -53       1       1       0       0               0D     60
     314      54       0       1       0       0       0       000010001D     61
     314       1       0       2       0       0       0               0D     62
     128      56       0       1       0       0       0       000010001D     63
     128       1       0       2       0       0       0               0D     64
     508      58       0       1       0       0       0       000010001D     65
     508       1       0       1       1       0       0               0D     66
     510      59       0       1       0       0       0       000010001D     67
     510       1     -61       1       1       0       0               0D     68
     314      60       0       1       0       0       0       000010001D     69
     314       1       0       2       0       0       0               0D     70
     128      62       0       1       0       0       0       000010001D     71
     128       1       0       2       0       0       0               0D     72
     508      64       0       1       0       0       0       000010001D     73
     508       1       0       1       1       0       0               0D     74
     510      65       0       1       0       0       0       000010001D     75
     510       1     -69       1       1       0       0               0D     76
     514      66       0       1       0       0       0       000010001D     77
     514       1       0       1       1       0       0               0D     78
     186      67       0       1       0       0       0       000010001D     79
     186       1       0       1       0       0       0 Ferrite       0D     80
     308      68       0       1       0       0       0       000010001D     81
     308       1       0       1       0       0       0               0D     82
     408      69       0       1       0       0       0       000010001D     83
     408       1       0       1       0       0       0               0D     84
     124      70       0       1       0       0       0       000010001D     85
     124       1       0       1       0       0       0               0D     86
     314      71       0       1       0       0       0       000010001D     87
     314       1       0       2       0       0       0               0D     88
     128      73       0       1       0       0       0       000010001D     89
     128       1       0       2       0       0       0               0D     90
     126      75       0       1       0       0       0       000010001D     91
     126       1       0       2       0       0       0               0D     92
     502      77       0       1       0       0       0       000010001D     93
     502       1       0       2       1       0       0               0D     94
     126      79       0       1       0       0       0       000010001D     95
     126       1       0       2       0       0       0               0D     96
     126      81       0       1       0       0       0       000010001D     97
     126       1       0       1       0       0       0               0D     98
     126      82       0       1       0       0       0       000010001D     99
     126       1       0       2       0       0       0               0D    100
     126      84       0       1       0       0       0       000010001D    101
     126       1       0       2       0       0       0               0D    102
     126      86       0       1       0       0       0       000010001D    103
     126       1       0       2       0       0       0               0D    104
     126      88       0       1       0       0       0       000010001D    105
     126       1       0       2       0       0       0               0D    106
     126      90       0       1       0       0       0       000010001D    107
     126       1       0       2       0       0       0               0D    108
     126      92       0       1       0       0       0       000010001D    109
     126       1       0       1       0       0       0               0D    110
     126      93       0       1       0       0       0       000010001D    111
     126       1       0       1       0       0       0               0D    112
     126      94       0       1       0       0       0       000010001D    113
     126       1       0       2       0       0       0               0D    114
     126      96       0       1       0       0       0       000010001D    115
     126       1       0       2       0       0       0               0D    116
     504      98       0       1       0       0       0       000010001D    117
     504       1       0       3       1       0       0               0D    118
     508     101       0       1       0       0       0       000010001D    119
     508       1       0       1       1       0       0               0D    120
     510     102       0       1       0       0       0       000010001D    121
     510       1     -87       1       1       0       0               0D    122
     314     103       0       1       0       0       0       000010001D    123
     314       1       0       2       0       0       0               0D    124
     128     105       0       1       0       0       0       000010001D    125
     128       1       0       2       0       0       0               0D    126
     508     107       0       1       0       0       0       000010001D    127
     508       1       0       1       1       0       0               0D    128
     510     108       0       1       0       0       0       000010001D    129
     510       1    -123       1       1       0       0               0D    130
     314     109       0       1       0       0       0       000010001D    131
     314       1       0       2       0       0       0               0D    132
     128     111       0       1       0       0       0       000010001D    133
     128       1       0       2       0       0       0               0D    134
     508     113       0       1       0       0       0       000010001D    135
     508       1       0       1       1       0       0               0D    136
     510     114       0       1       0       0       0       000010001D    137
     510       1    -131       1       1       0       0               0D    138
     314     115       0       1       0       0       0       000010001D    139
     314       1       0       2       0       0       0               0D    140
     128     117       0       1       0       0       0       000010001D    141
     128       1       0       2       0       0       0               0D    142
     508     119       0       1       0       0       0       000010001D    143
     508       1       0       1       1       0       0               0D    144
     510     120       0       1       0       0       0       000010001D    145
     510       1    -139       1       1       0       0               0D    146
     314     121       0       1       0       0       0       000010001D    147
     314       1       0       2       0       0       0               0D    148
     128     123       0       1       0       0       0       000010001D    149
     128       1       0       2       0       0       0               0D    150
     508     125       0       1       0       0       0       000010001D    151
     508       1       0       1       1       0       0               0D    152
     510     126       0       1       0       0       0       000010001D    153
     510       1    -147       1       1       0       0               0D    154
     314     127       0       1       0       0       0       000010001D    155
     314       1       0       2       0       0       0               0D    156
     128     129       0       1       0       0       0       000010001D    157
     128       1       0       2       0       0       0               0D    158
     508     131       0       1       0       0       0       000010001D    159
     508       1       0       1       1       0       0               0D    160
     510     132       0       1       0       0       0       000010001D    161
     510       1    -155       1       1       0       0               0D    162
     514     133       0       1       0       0       0       000010001D    163
     514       1       0       1       1       0       0               0D    164
     186     134       0       1       0       0       0       000010001D    165
     186       1       0       1       0       0       0 Contact       0D    166
     308     135       0       1       0       0       0       000010001D    167
     308       1       0       1       0       0       0               0D    168
     408     136       0       1       0       0      85       000010001D    169
     408       1       0       1       0       0       0               0D    170
     124     137       0       1       0       0       0       000010001D    171
     124       1       0       1       0       0       0               0D    172
     408     138       0       1       0       0     171       000010001D    173
     408       1       0       1       0       0       0               0D    174
     308     139       0       1       0       0       0       000010001D    175
     308       1       0       1       0       0       0               0D    176
     408     140       0       1       0       0       0       000000001D    177
     408       1       0       1       0       0       0               0D    178
314,11.9999997317791,11.9999997317791,11.9999997317791,10HMixedC       1P      1
olor;                                                                  1P      2
128,1,1,1,1,0,0,1,0,0,0.,0.,1.,1.,0.,0.,1.,1.,1.,1.,1.,1.,-0.4,        3P      3
0.5,0.4,-0.4,0.5,-0.4,0.4,0.5,0.4,0.4,0.5,-0.4,0.,1.,0.,1.;            3P      4
126,1,1,0,0,1,0,0.,0.,1.,1.,1.,1.,-0.4,0.5,0.4,-0.4,0.5,-0.4,0.,       5P      5
1.;                                                                    5P      6
502,8,0.4,0.5,-0.4,-0.4,-0.5,-0.4,0.4,-0.5,0.4,-0.4,0.5,-0.4,          7P      7
-0.4,-0.5,0.4,0.4,0.5,0.4,-0.4,0.5,0.4,0.4,-0.5,-0.4;                  7P      8
126,1,1,0,0,1,0,0.,0.,1.,1.,1.,1.,-0.4,-0.5,0.4,-0.4,-0.5,-0.4,        9P      9
0.,1.;                                                                 9P     10
126,1,1,0,0,1,0,0.,0.,1.,1.,1.,1.,0.4,-0.5,0.4,0.4,-0.5,-0.4,0.,      11P     11
1.;                                                                   11P     12
126,1,1,0,0,1,0,0.,0.,1.,1.,1.,1.,0.4,0.5,0.4,0.4,0.5,-0.4,0.,        13P     13
1.;                                                                   13P     14
126,1,1,0,0,1,0,0.,0.,1.,1.,1.,1.,0.4,-0.5,0.4,0.4,0.5,0.4,0.,        15P     15
1.;                                                                   15P     16
126,1,1,0,0,1,0,0.,0.,1.,1.,1.,1.,-0.4,-0.5,0.4,0.4,-0.5,0.4,0.,      17P     17
1.;                                                                   17P     18
126,1,1,0,0,1,0,0.,0.,1.,1.,1.,1.,-0.4,0.5,0.4,-0.4,-0.5,0.4,0.,      19P     19
1.;                                                                   19P     20
126,1,1,0,0,1,0,0.,0.,1.,1.,1.,1.,0.4,0.5,0.4,-0.4,0.5,0.4,0.,        21P     21
1.;                                                                   21P     22
126,1,1,0,0,1,0,0.,0.,1.,1.,1.,1.,0.4,-0.5,-0.4,0.4,0.5,-0.4,0.,      23P     23
1.;                                                                   23P     24
126,1,1,0,0,1,0,0.,0.,1.,1.,1.,1.,-0.4,-0.5,-0.4,0.4,-0.5,-0.4,       25P     25
0.,1.;                                                                25P     26
126,1,1,0,0,1,0,0.,0.,1.,1.,1.,1.,-0.4,0.5,-0.4,-0.4,-0.5,-0.4,       27P     27
0.,1.;                                                                27P     28
126,1,1,0,0,1,0,0.,0.,1.,1.,1.,1.,0.4,0.5,-0.4,-0.4,0.5,-0.4,0.,      29P     29
1.;                                                                   29P     30
504,12,5,7,7,7,4,9,7,5,7,2,11,7,3,7,8,13,7,6,7,1,15,7,3,7,6,17,       31P     31
7,5,7,3,19,7,7,7,5,21,7,6,7,7,23,7,8,7,1,25,7,2,7,8,27,7,4,7,2,       31P     32
29,7,1,7,4;                                                           31P     33
508,4,0,31,12,1,0,0,31,1,0,0,0,31,8,0,0,0,31,4,1,0;                   33P     34
510,3,1,1,33;                                                         35P     35
314,11.9999997317791,11.9999997317791,11.9999997317791,10HMixedC      37P     36
olor;                                                                 37P     37
128,1,1,1,1,0,0,1,0,0,0.,0.,1.,1.,0.,0.,1.,1.,1.,1.,1.,1.,-0.4,       39P     38
-0.5,-0.4,-0.4,0.5,-0.4,-0.4,-0.5,0.4,-0.4,0.5,0.4,0.,1.,0.,1.;       39P     39
508,4,0,31,11,1,0,0,31,2,0,0,0,31,7,0,0,0,31,1,1,0;                   41P     40
510,39,1,1,41;                                                        43P     41
314,11.9999997317791,11.9999997317791,11.9999997317791,10HMixedC      45P     42
olor;                                                                 45P     43
128,1,1,1,1,0,0,1,0,0,0.,0.,1.,1.,0.,0.,1.,1.,1.,1.,1.,1.,0.4,        47P     44
-0.5,-0.4,-0.4,-0.5,-0.4,0.4,-0.5,0.4,-0.4,-0.5,0.4,0.,1.,0.,1.;      47P     45
508,4,0,31,10,1,0,0,31,3,0,0,0,31,6,0,0,0,31,2,1,0;                   49P     46
510,47,1,1,49;                                                        51P     47
314,11.9999997317791,11.9999997317791,11.9999997317791,10HMixedC      53P     48
olor;                                                                 53P     49
128,1,1,1,1,0,0,1,0,0,0.,0.,1.,1.,0.,0.,1.,1.,1.,1.,1.,1.,0.4,        55P     50
0.5,-0.4,0.4,-0.5,-0.4,0.4,0.5,0.4,0.4,-0.5,0.4,0.,1.,0.,1.;          55P     51
508,4,0,31,9,1,0,0,31,4,0,0,0,31,5,0,0,0,31,3,1,0;                    57P     52
510,55,1,1,57;                                                        59P     53
314,11.9999997317791,11.9999997317791,11.9999997317791,10HMixedC      61P     54
olor;                                                                 61P     55
128,1,1,1,1,0,0,1,0,0,0.,0.,1.,1.,0.,0.,1.,1.,1.,1.,1.,1.,-0.4,       63P     56
-0.5,-0.4,0.4,-0.5,-0.4,-0.4,0.5,-0.4,0.4,0.5,-0.4,0.,1.,0.,1.;       63P     57
508,4,0,31,12,0,0,0,31,9,0,0,0,31,10,0,0,0,31,11,0,0;                 65P     58
510,63,1,1,65;                                                        67P     59
314,11.9999997317791,11.9999997317791,11.9999997317791,10HMixedC      69P     60
olor;                                                                 69P     61
128,1,1,1,1,0,0,1,0,0,0.,0.,1.,1.,0.,0.,1.,1.,1.,1.,1.,1.,-0.4,       71P     62
-0.5,0.4,0.4,-0.5,0.4,-0.4,0.5,0.4,0.4,0.5,0.4,0.,1.,0.,1.;           71P     63
508,4,0,31,8,1,0,0,31,7,1,0,0,31,6,1,0,0,31,5,1,0;                    73P     64
510,71,1,1,73;                                                        75P     65
514,6,35,0,43,0,51,0,59,0,67,0,75,1;                                  77P     66
186,77,1,0;                                                           79P     67
308,0,7HDEFAULT,1,79;                                                 81P     68
408,81,0.,0.,0.,1.;                                                   83P     69
124,1.,0.,0.,0.00000000000001,0.,1.,0.,-0.5,0.,0.,1.,0.;              85P     70
314,69.9999988079071,69.9999988079071,69.9999988079071,10HMixedC      87P     71
olor;                                                                 87P     72
128,1,1,1,1,0,0,1,0,0,0.,0.,1.,1.,0.,0.,1.,1.,1.,1.,1.,1.,-0.4,       89P     73
-0.3,0.4,-0.4,-0.3,-0.4,-0.4,0.,0.4,-0.4,0.,-0.4,0.,1.,0.,1.;         89P     74
126,1,1,0,0,1,0,0.,0.,1.,1.,1.,1.,-0.4,-0.3,-0.4,-0.4,0.,-0.4,        91P     75
0.,1.;                                                                91P     76
502,8,0.4,-0.3,0.4,-0.4,-0.3,0.4,-0.4,-0.3,-0.4,0.4,0.,-0.4,0.4,      93P     77
-0.3,-0.4,-0.4,0.,-0.4,0.4,0.,0.4,-0.4,0.,0.4;                        93P     78
126,1,1,0,0,1,0,0.,0.,1.,1.,1.,1.,0.4,-0.3,-0.4,0.4,0.,-0.4,0.,       95P     79
1.;                                                                   95P     80
126,1,1,0,0,1,0,0.,0.,1.,1.,1.,1.,0.4,-0.3,0.4,0.4,0.,0.4,0.,1.;      97P     81
126,1,1,0,0,1,0,0.,0.,1.,1.,1.,1.,-0.4,-0.3,0.4,-0.4,0.,0.4,0.,       99P     82
1.;                                                                   99P     83
126,1,1,0,0,1,0,0.,0.,1.,1.,1.,1.,0.4,-0.3,0.4,-0.4,-0.3,0.4,0.,     101P     84
1.;                                                                  101P     85
126,1,1,0,0,1,0,0.,0.,1.,1.,1.,1.,0.4,-0.3,-0.4,0.4,-0.3,0.4,0.,     103P     86
1.;                                                                  103P     87
126,1,1,0,0,1,0,0.,0.,1.,1.,1.,1.,-0.4,-0.3,-0.4,0.4,-0.3,-0.4,      105P     88
0.,1.;                                                               105P     89
126,1,1,0,0,1,0,0.,0.,1.,1.,1.,1.,-0.4,-0.3,0.4,-0.4,-0.3,-0.4,      107P     90
0.,1.;                                                               107P     91
126,1,1,0,0,1,0,0.,0.,1.,1.,1.,1.,0.4,0.,0.4,-0.4,0.,0.4,0.,1.;      109P     92
126,1,1,0,0,1,0,0.,0.,1.,1.,1.,1.,0.4,0.,-0.4,0.4,0.,0.4,0.,1.;      111P     93
126,1,1,0,0,1,0,0.,0.,1.,1.,1.,1.,-0.4,0.,-0.4,0.4,0.,-0.4,0.,       113P     94
1.;                                                                  113P     95
126,1,1,0,0,1,0,0.,0.,1.,1.,1.,1.,-0.4,0.,0.4,-0.4,0.,-0.4,0.,       115P     96
1.;                                                                  115P     97
504,12,91,93,3,93,6,95,93,5,93,4,97,93,1,93,7,99,93,2,93,8,101,      117P     98
93,1,93,2,103,93,5,93,1,105,93,3,93,5,107,93,2,93,3,109,93,7,93,     117P     99
8,111,93,4,93,7,113,93,6,93,4,115,93,8,93,6;                         117P    100
508,4,0,117,12,1,0,0,117,1,0,0,0,117,8,0,0,0,117,4,1,0;              119P    101
510,89,1,1,119;                                                      121P    102
314,69.9999988079071,69.9999988079071,69.9999988079071,10HMixedC     123P    103
olor;                                                                123P    104
128,1,1,1,1,0,0,1,0,0,0.,0.,1.,1.,0.,0.,1.,1.,1.,1.,1.,1.,-0.4,      125P    105
-0.3,-0.4,0.4,-0.3,-0.4,-0.4,0.,-0.4,0.4,0.,-0.4,0.,1.,0.,1.;        125P    106
508,4,0,117,11,1,0,0,117,2,0,0,0,117,7,0,0,0,117,1,1,0;              127P    107
510,125,1,1,127;                                                     129P    108
314,69.9999988079071,69.9999988079071,69.9999988079071,10HMixedC     131P    109
olor;                                                                131P    110
128,1,1,1,1,0,0,1,0,0,0.,0.,1.,1.,0.,0.,1.,1.,1.,1.,1.,1.,0.4,       133P    111
-0.3,-0.4,0.4,-0.3,0.4,0.4,0.,-0.4,0.4,0.,0.4,0.,1.,0.,1.;           133P    112
508,4,0,117,10,1,0,0,117,3,0,0,0,117,6,0,0,0,117,2,1,0;              135P    113
510,133,1,1,135;                                                     137P    114
314,69.9999988079071,69.9999988079071,69.9999988079071,10HMixedC     139P    115
olor;                                                                139P    116
128,1,1,1,1,0,0,1,0,0,0.,0.,1.,1.,0.,0.,1.,1.,1.,1.,1.,1.,0.4,       141P    117
-0.3,0.4,-0.4,-0.3,0.4,0.4,0.,0.4,-0.4,0.,0.4,0.,1.,0.,1.;           141P    118
508,4,0,117,9,1,0,0,117,4,0,0,0,117,5,0,0,0,117,3,1,0;               143P    119
510,141,1,1,143;                                                     145P    120
314,69.9999988079071,69.9999988079071,69.9999988079071,10HMixedC     147P    121
olor;                                                                147P    122
128,1,1,1,1,0,0,1,0,0,0.,0.,1.,1.,0.,0.,1.,1.,1.,1.,1.,1.,-0.4,      149P    123
0.,0.4,-0.4,0.,-0.4,0.4,0.,0.4,0.4,0.,-0.4,0.,1.,0.,1.;              149P    124
508,4,0,117,12,0,0,0,117,9,0,0,0,117,10,0,0,0,117,11,0,0;            151P    125
510,149,1,1,151;                                                     153P    126
314,69.9999988079071,69.9999988079071,69.9999988079071,10HMixedC     155P    127
olor;                                                                155P    128
128,1,1,1,1,0,0,1,0,0,0.,0.,1.,1.,0.,0.,1.,1.,1.,1.,1.,1.,-0.4,      157P    129
-0.3,0.4,-0.4,-0.3,-0.4,0.4,-0.3,0.4,0.4,-0.3,-0.4,0.,1.,0.,1.;      157P    130
508,4,0,117,8,1,0,0,117,7,1,0,0,117,6,1,0,0,117,5,1,0;               159P    131
510,157,1,1,159;                                                     161P    132
514,6,121,0,129,0,137,0,145,0,153,0,161,1;                           163P    133
186,163,1,0;                                                         165P    134
308,0,7HDEFAULT,1,165;                                               167P    135
408,167,0.,0.,0.,1.;                                                 169P    136
124,-0.,-0.,-1.,-0.,-0.,-1.,0.,0.5,-1.,0.,0.,-0.;                    171P    137
408,167,0.,0.,0.,1.;                                                 173P    138
308,1,7HDEFAULT,3,83,169,173;                                        175P    139
408,175,0.,0.,0.,1.;                                                 177P    140
S      1G      4D    178P    140                                        T      1
