ISO-10303-21;
HEADER;
FILE_DESCRIPTION( ( 'Unknown' ), '1' );
FILE_NAME( 'I:/User_Groups_Only/17_EMC_Product_&_Development/Documentations/1_ArtikelStamm/PG_1/WE_Ferrite_Ringe/Grafiken_Zeichnungen/CAD_Zeichnungswesen/CAD_aktuell/742701110_28x18x7,5/3d_view/742701110.stp', 'Unknown', ( 'Unknown' ), ( 'Unknown' ), 'XStep 1.0', 'Unknown', '  ' );
FILE_SCHEMA( ( 'automotive_design' ) );
ENDSEC;
DATA;
#1 = MECHANICAL_DESIGN_GEOMETRIC_PRESENTATION_REPRESENTATION( ' ', ( #10, #11, #12, #13, #14, #15, #16, #17 ), #6 );
#2 = PRODUCT_DEFINITION_CONTEXT( '', #18, 'design' );
#3 = APPLICATION_PROTOCOL_DEFINITION( 'INTERNATIONAL STANDARD', 'automotive_design', 1994, #18 );
#4 = PRODUCT_CATEGORY_RELATIONSHIP( 'NONE', 'NONE', #19, #20 );
#5 = SHAPE_DEFINITION_REPRESENTATION( #21, #22 );
#6 =  ( GEOMETRIC_REPRESENTATION_CONTEXT( 3 )GLOBAL_UNCERTAINTY_ASSIGNED_CONTEXT( ( #25 ) )GLOBAL_UNIT_ASSIGNED_CONTEXT( ( #27, #28, #29 ) )REPRESENTATION_CONTEXT( 'NONE', 'WORKSPACE' ) );
#10 = STYLED_ITEM( '', ( #31 ), #32 );
#11 = STYLED_ITEM( '', ( #33 ), #34 );
#12 = STYLED_ITEM( '', ( #35 ), #36 );
#13 = STYLED_ITEM( '', ( #37 ), #38 );
#14 = STYLED_ITEM( '', ( #39 ), #40 );
#15 = STYLED_ITEM( '', ( #41 ), #42 );
#16 = STYLED_ITEM( '', ( #43 ), #44 );
#17 = STYLED_ITEM( '', ( #45 ), #46 );
#18 = APPLICATION_CONTEXT( ' ' );
#19 = PRODUCT_CATEGORY( 'part', 'NONE' );
#20 = PRODUCT_RELATED_PRODUCT_CATEGORY( 'detail', ' ', ( #47 ) );
#21 = PRODUCT_DEFINITION_SHAPE( 'NONE', 'NONE', #48 );
#22 = ADVANCED_BREP_SHAPE_REPRESENTATION( '1', ( #49, #50 ), #6 );
#25 = UNCERTAINTY_MEASURE_WITH_UNIT( LENGTH_MEASURE( 0.00100000000000000 ), #27, '', '' );
#27 =  ( CONVERSION_BASED_UNIT( 'MILLIMETRE', #53 )LENGTH_UNIT(  )NAMED_UNIT( #56 ) );
#28 =  ( NAMED_UNIT( #58 )PLANE_ANGLE_UNIT(  )SI_UNIT( $, .RADIAN. ) );
#29 =  ( NAMED_UNIT( #58 )SOLID_ANGLE_UNIT(  )SI_UNIT( $, .STERADIAN. ) );
#31 = PRESENTATION_STYLE_ASSIGNMENT( ( #64 ) );
#32 = ADVANCED_FACE( '', ( #65, #66 ), #67, .T. );
#33 = PRESENTATION_STYLE_ASSIGNMENT( ( #68 ) );
#34 = ADVANCED_FACE( '', ( #69, #70 ), #71, .F. );
#35 = PRESENTATION_STYLE_ASSIGNMENT( ( #72 ) );
#36 = ADVANCED_FACE( '', ( #73, #74 ), #75, .F. );
#37 = PRESENTATION_STYLE_ASSIGNMENT( ( #76 ) );
#38 = ADVANCED_FACE( '', ( #77, #78 ), #79, .T. );
#39 = PRESENTATION_STYLE_ASSIGNMENT( ( #80 ) );
#40 = ADVANCED_FACE( '', ( #81, #82 ), #83, .T. );
#41 = PRESENTATION_STYLE_ASSIGNMENT( ( #84 ) );
#42 = ADVANCED_FACE( '', ( #85, #86 ), #87, .T. );
#43 = PRESENTATION_STYLE_ASSIGNMENT( ( #88 ) );
#44 = ADVANCED_FACE( '', ( #89, #90 ), #91, .T. );
#45 = PRESENTATION_STYLE_ASSIGNMENT( ( #92 ) );
#46 = ADVANCED_FACE( '', ( #93, #94 ), #95, .T. );
#47 = PRODUCT( '1', '1', 'PART-1-DESC', ( #96 ) );
#48 = PRODUCT_DEFINITION( 'NONE', 'NONE', #97, #2 );
#49 = MANIFOLD_SOLID_BREP( '1', #98 );
#50 = AXIS2_PLACEMENT_3D( '', #99, #100, #101 );
#53 = LENGTH_MEASURE_WITH_UNIT( LENGTH_MEASURE( 1.00000000000000 ), #102 );
#56 = DIMENSIONAL_EXPONENTS( 1.00000000000000, 0.000000000000000, 0.000000000000000, 0.000000000000000, 0.000000000000000, 0.000000000000000, 0.000000000000000 );
#58 = DIMENSIONAL_EXPONENTS( 0.000000000000000, 0.000000000000000, 0.000000000000000, 0.000000000000000, 0.000000000000000, 0.000000000000000, 0.000000000000000 );
#64 = SURFACE_STYLE_USAGE( .BOTH., #103 );
#65 = FACE_OUTER_BOUND( '', #104, .T. );
#66 = FACE_OUTER_BOUND( '', #105, .T. );
#67 = TOROIDAL_SURFACE( '', #106, 9.20000000000000, 0.200000000000000 );
#68 = SURFACE_STYLE_USAGE( .BOTH., #107 );
#69 = FACE_BOUND( '', #108, .T. );
#70 = FACE_OUTER_BOUND( '', #109, .T. );
#71 = PLANE( '', #110 );
#72 = SURFACE_STYLE_USAGE( .BOTH., #111 );
#73 = FACE_OUTER_BOUND( '', #112, .T. );
#74 = FACE_OUTER_BOUND( '', #113, .T. );
#75 = CYLINDRICAL_SURFACE( '', #114, 9.00000000000000 );
#76 = SURFACE_STYLE_USAGE( .BOTH., #115 );
#77 = FACE_OUTER_BOUND( '', #116, .T. );
#78 = FACE_OUTER_BOUND( '', #117, .T. );
#79 = TOROIDAL_SURFACE( '', #118, 9.20000000000000, 0.200000000000000 );
#80 = SURFACE_STYLE_USAGE( .BOTH., #119 );
#81 = FACE_OUTER_BOUND( '', #120, .T. );
#82 = FACE_OUTER_BOUND( '', #121, .T. );
#83 = TOROIDAL_SURFACE( '', #122, 13.8000000000000, 0.200000000000000 );
#84 = SURFACE_STYLE_USAGE( .BOTH., #123 );
#85 = FACE_OUTER_BOUND( '', #124, .T. );
#86 = FACE_OUTER_BOUND( '', #125, .T. );
#87 = TOROIDAL_SURFACE( '', #126, 13.8000000000000, 0.200000000000000 );
#88 = SURFACE_STYLE_USAGE( .BOTH., #127 );
#89 = FACE_OUTER_BOUND( '', #128, .T. );
#90 = FACE_BOUND( '', #129, .T. );
#91 = PLANE( '', #130 );
#92 = SURFACE_STYLE_USAGE( .BOTH., #131 );
#93 = FACE_OUTER_BOUND( '', #132, .T. );
#94 = FACE_OUTER_BOUND( '', #133, .T. );
#95 = CYLINDRICAL_SURFACE( '', #134, 14.0000000000000 );
#96 = PRODUCT_CONTEXT( '', #18, 'mechanical' );
#97 = PRODUCT_DEFINITION_FORMATION_WITH_SPECIFIED_SOURCE( ' ', 'NONE', #47, .NOT_KNOWN. );
#98 = CLOSED_SHELL( '', ( #36, #38, #46, #40, #32, #44, #42, #34 ) );
#99 = CARTESIAN_POINT( '', ( 0.000000000000000, 0.000000000000000, 0.000000000000000 ) );
#100 = DIRECTION( '', ( 0.000000000000000, 0.000000000000000, 1.00000000000000 ) );
#101 = DIRECTION( '', ( 1.00000000000000, 0.000000000000000, 0.000000000000000 ) );
#102 =  ( NAMED_UNIT( #56 )LENGTH_UNIT(  )SI_UNIT( .MILLI., .METRE. ) );
#103 = SURFACE_SIDE_STYLE( '', ( #136 ) );
#104 = EDGE_LOOP( '', ( #137 ) );
#105 = EDGE_LOOP( '', ( #138 ) );
#106 = AXIS2_PLACEMENT_3D( '', #139, #140, #141 );
#107 = SURFACE_SIDE_STYLE( '', ( #142 ) );
#108 = EDGE_LOOP( '', ( #143 ) );
#109 = EDGE_LOOP( '', ( #144 ) );
#110 = AXIS2_PLACEMENT_3D( '', #145, #146, #147 );
#111 = SURFACE_SIDE_STYLE( '', ( #148 ) );
#112 = EDGE_LOOP( '', ( #149 ) );
#113 = EDGE_LOOP( '', ( #150 ) );
#114 = AXIS2_PLACEMENT_3D( '', #151, #152, #153 );
#115 = SURFACE_SIDE_STYLE( '', ( #154 ) );
#116 = EDGE_LOOP( '', ( #155 ) );
#117 = EDGE_LOOP( '', ( #156 ) );
#118 = AXIS2_PLACEMENT_3D( '', #157, #158, #159 );
#119 = SURFACE_SIDE_STYLE( '', ( #160 ) );
#120 = EDGE_LOOP( '', ( #161 ) );
#121 = EDGE_LOOP( '', ( #162 ) );
#122 = AXIS2_PLACEMENT_3D( '', #163, #164, #165 );
#123 = SURFACE_SIDE_STYLE( '', ( #166 ) );
#124 = EDGE_LOOP( '', ( #167 ) );
#125 = EDGE_LOOP( '', ( #168 ) );
#126 = AXIS2_PLACEMENT_3D( '', #169, #170, #171 );
#127 = SURFACE_SIDE_STYLE( '', ( #172 ) );
#128 = EDGE_LOOP( '', ( #173 ) );
#129 = EDGE_LOOP( '', ( #174 ) );
#130 = AXIS2_PLACEMENT_3D( '', #175, #176, #177 );
#131 = SURFACE_SIDE_STYLE( '', ( #178 ) );
#132 = EDGE_LOOP( '', ( #179 ) );
#133 = EDGE_LOOP( '', ( #180 ) );
#134 = AXIS2_PLACEMENT_3D( '', #181, #182, #183 );
#136 = SURFACE_STYLE_FILL_AREA( #184 );
#137 = ORIENTED_EDGE( '', *, *, #185, .F. );
#138 = ORIENTED_EDGE( '', *, *, #186, .F. );
#139 = CARTESIAN_POINT( '', ( 0.000000000000000, 3.55000000000000, 0.000000000000000 ) );
#140 = DIRECTION( '', ( 0.000000000000000, 1.00000000000000, 0.000000000000000 ) );
#141 = DIRECTION( '', ( 0.000000000000000, 0.000000000000000, 1.00000000000000 ) );
#142 = SURFACE_STYLE_FILL_AREA( #187 );
#143 = ORIENTED_EDGE( '', *, *, #188, .T. );
#144 = ORIENTED_EDGE( '', *, *, #189, .T. );
#145 = CARTESIAN_POINT( '', ( 0.000000000000000, -3.75000000000000, 0.000000000000000 ) );
#146 = DIRECTION( '', ( 0.000000000000000, 1.00000000000000, 0.000000000000000 ) );
#147 = DIRECTION( '', ( 0.000000000000000, 0.000000000000000, 1.00000000000000 ) );
#148 = SURFACE_STYLE_FILL_AREA( #190 );
#149 = ORIENTED_EDGE( '', *, *, #191, .T. );
#150 = ORIENTED_EDGE( '', *, *, #186, .T. );
#151 = CARTESIAN_POINT( '', ( 0.000000000000000, -3.75000000000000, 0.000000000000000 ) );
#152 = DIRECTION( '', ( -0.000000000000000, -1.00000000000000, -0.000000000000000 ) );
#153 = DIRECTION( '', ( 0.000000000000000, 0.000000000000000, 1.00000000000000 ) );
#154 = SURFACE_STYLE_FILL_AREA( #192 );
#155 = ORIENTED_EDGE( '', *, *, #191, .F. );
#156 = ORIENTED_EDGE( '', *, *, #188, .F. );
#157 = CARTESIAN_POINT( '', ( 0.000000000000000, -3.55000000000000, 0.000000000000000 ) );
#158 = DIRECTION( '', ( 0.000000000000000, 1.00000000000000, 0.000000000000000 ) );
#159 = DIRECTION( '', ( 0.000000000000000, 0.000000000000000, 1.00000000000000 ) );
#160 = SURFACE_STYLE_FILL_AREA( #193 );
#161 = ORIENTED_EDGE( '', *, *, #189, .F. );
#162 = ORIENTED_EDGE( '', *, *, #194, .F. );
#163 = CARTESIAN_POINT( '', ( 0.000000000000000, -3.55000000000000, 0.000000000000000 ) );
#164 = DIRECTION( '', ( 0.000000000000000, 1.00000000000000, 0.000000000000000 ) );
#165 = DIRECTION( '', ( 0.000000000000000, 0.000000000000000, 1.00000000000000 ) );
#166 = SURFACE_STYLE_FILL_AREA( #195 );
#167 = ORIENTED_EDGE( '', *, *, #196, .F. );
#168 = ORIENTED_EDGE( '', *, *, #197, .F. );
#169 = CARTESIAN_POINT( '', ( 0.000000000000000, 3.55000000000000, 0.000000000000000 ) );
#170 = DIRECTION( '', ( 0.000000000000000, 1.00000000000000, 0.000000000000000 ) );
#171 = DIRECTION( '', ( 0.000000000000000, 0.000000000000000, 1.00000000000000 ) );
#172 = SURFACE_STYLE_FILL_AREA( #198 );
#173 = ORIENTED_EDGE( '', *, *, #197, .T. );
#174 = ORIENTED_EDGE( '', *, *, #185, .T. );
#175 = CARTESIAN_POINT( '', ( 0.000000000000000, 3.75000000000000, 0.000000000000000 ) );
#176 = DIRECTION( '', ( 0.000000000000000, 1.00000000000000, 0.000000000000000 ) );
#177 = DIRECTION( '', ( 0.000000000000000, 0.000000000000000, 1.00000000000000 ) );
#178 = SURFACE_STYLE_FILL_AREA( #199 );
#179 = ORIENTED_EDGE( '', *, *, #196, .T. );
#180 = ORIENTED_EDGE( '', *, *, #194, .T. );
#181 = CARTESIAN_POINT( '', ( 0.000000000000000, -3.75000000000000, 0.000000000000000 ) );
#182 = DIRECTION( '', ( -0.000000000000000, -1.00000000000000, -0.000000000000000 ) );
#183 = DIRECTION( '', ( 0.000000000000000, 0.000000000000000, 1.00000000000000 ) );
#184 = FILL_AREA_STYLE( '', ( #200 ) );
#185 = EDGE_CURVE( '', #201, #201, #202, .F. );
#186 = EDGE_CURVE( '', #203, #203, #204, .T. );
#187 = FILL_AREA_STYLE( '', ( #205 ) );
#188 = EDGE_CURVE( '', #206, #206, #207, .T. );
#189 = EDGE_CURVE( '', #208, #208, #209, .F. );
#190 = FILL_AREA_STYLE( '', ( #210 ) );
#191 = EDGE_CURVE( '', #211, #211, #212, .F. );
#192 = FILL_AREA_STYLE( '', ( #213 ) );
#193 = FILL_AREA_STYLE( '', ( #214 ) );
#194 = EDGE_CURVE( '', #215, #215, #216, .T. );
#195 = FILL_AREA_STYLE( '', ( #217 ) );
#196 = EDGE_CURVE( '', #218, #218, #219, .F. );
#197 = EDGE_CURVE( '', #220, #220, #221, .T. );
#198 = FILL_AREA_STYLE( '', ( #222 ) );
#199 = FILL_AREA_STYLE( '', ( #223 ) );
#200 = FILL_AREA_STYLE_COLOUR( '', #224 );
#201 = VERTEX_POINT( '', #225 );
#202 = CIRCLE( '', #226, 9.20000000000000 );
#203 = VERTEX_POINT( '', #227 );
#204 = CIRCLE( '', #228, 9.00000000000000 );
#205 = FILL_AREA_STYLE_COLOUR( '', #229 );
#206 = VERTEX_POINT( '', #230 );
#207 = CIRCLE( '', #231, 9.20000000000000 );
#208 = VERTEX_POINT( '', #232 );
#209 = CIRCLE( '', #233, 13.8000000000000 );
#210 = FILL_AREA_STYLE_COLOUR( '', #234 );
#211 = VERTEX_POINT( '', #235 );
#212 = CIRCLE( '', #236, 9.00000000000000 );
#213 = FILL_AREA_STYLE_COLOUR( '', #237 );
#214 = FILL_AREA_STYLE_COLOUR( '', #238 );
#215 = VERTEX_POINT( '', #239 );
#216 = CIRCLE( '', #240, 14.0000000000000 );
#217 = FILL_AREA_STYLE_COLOUR( '', #241 );
#218 = VERTEX_POINT( '', #242 );
#219 = CIRCLE( '', #243, 14.0000000000000 );
#220 = VERTEX_POINT( '', #244 );
#221 = CIRCLE( '', #245, 13.8000000000000 );
#222 = FILL_AREA_STYLE_COLOUR( '', #246 );
#223 = FILL_AREA_STYLE_COLOUR( '', #247 );
#224 = COLOUR_RGB( '', 0.200000002980232, 0.200000002980232, 0.200000002980232 );
#225 = CARTESIAN_POINT( '', ( 0.000000000000000, 3.75000000000000, 9.20000000000000 ) );
#226 = AXIS2_PLACEMENT_3D( '', #248, #249, #250 );
#227 = CARTESIAN_POINT( '', ( 0.000000000000000, 3.55000000000000, 9.00000000000000 ) );
#228 = AXIS2_PLACEMENT_3D( '', #251, #252, #253 );
#229 = COLOUR_RGB( '', 0.200000002980232, 0.200000002980232, 0.200000002980232 );
#230 = CARTESIAN_POINT( '', ( 0.000000000000000, -3.75000000000000, 9.20000000000000 ) );
#231 = AXIS2_PLACEMENT_3D( '', #254, #255, #256 );
#232 = CARTESIAN_POINT( '', ( 0.000000000000000, -3.75000000000000, 13.8000000000000 ) );
#233 = AXIS2_PLACEMENT_3D( '', #257, #258, #259 );
#234 = COLOUR_RGB( '', 0.200000002980232, 0.200000002980232, 0.200000002980232 );
#235 = CARTESIAN_POINT( '', ( 0.000000000000000, -3.55000000000000, 9.00000000000000 ) );
#236 = AXIS2_PLACEMENT_3D( '', #260, #261, #262 );
#237 = COLOUR_RGB( '', 0.200000002980232, 0.200000002980232, 0.200000002980232 );
#238 = COLOUR_RGB( '', 0.200000002980232, 0.200000002980232, 0.200000002980232 );
#239 = CARTESIAN_POINT( '', ( 0.000000000000000, -3.55000000000000, 14.0000000000000 ) );
#240 = AXIS2_PLACEMENT_3D( '', #263, #264, #265 );
#241 = COLOUR_RGB( '', 0.200000002980232, 0.200000002980232, 0.200000002980232 );
#242 = CARTESIAN_POINT( '', ( 0.000000000000000, 3.55000000000000, 14.0000000000000 ) );
#243 = AXIS2_PLACEMENT_3D( '', #266, #267, #268 );
#244 = CARTESIAN_POINT( '', ( 0.000000000000000, 3.75000000000000, 13.8000000000000 ) );
#245 = AXIS2_PLACEMENT_3D( '', #269, #270, #271 );
#246 = COLOUR_RGB( '', 0.200000002980232, 0.200000002980232, 0.200000002980232 );
#247 = COLOUR_RGB( '', 0.200000002980232, 0.200000002980232, 0.200000002980232 );
#248 = CARTESIAN_POINT( '', ( 0.000000000000000, 3.75000000000000, 0.000000000000000 ) );
#249 = DIRECTION( '', ( 0.000000000000000, 1.00000000000000, 0.000000000000000 ) );
#250 = DIRECTION( '', ( 0.000000000000000, 0.000000000000000, 1.00000000000000 ) );
#251 = CARTESIAN_POINT( '', ( 0.000000000000000, 3.55000000000000, 0.000000000000000 ) );
#252 = DIRECTION( '', ( 0.000000000000000, 1.00000000000000, 0.000000000000000 ) );
#253 = DIRECTION( '', ( 0.000000000000000, 0.000000000000000, 1.00000000000000 ) );
#254 = CARTESIAN_POINT( '', ( 0.000000000000000, -3.75000000000000, 0.000000000000000 ) );
#255 = DIRECTION( '', ( 0.000000000000000, 1.00000000000000, 0.000000000000000 ) );
#256 = DIRECTION( '', ( 0.000000000000000, 0.000000000000000, 1.00000000000000 ) );
#257 = CARTESIAN_POINT( '', ( 0.000000000000000, -3.75000000000000, 0.000000000000000 ) );
#258 = DIRECTION( '', ( 0.000000000000000, 1.00000000000000, 0.000000000000000 ) );
#259 = DIRECTION( '', ( 0.000000000000000, 0.000000000000000, 1.00000000000000 ) );
#260 = CARTESIAN_POINT( '', ( 0.000000000000000, -3.55000000000000, 0.000000000000000 ) );
#261 = DIRECTION( '', ( 0.000000000000000, 1.00000000000000, 0.000000000000000 ) );
#262 = DIRECTION( '', ( 0.000000000000000, 0.000000000000000, 1.00000000000000 ) );
#263 = CARTESIAN_POINT( '', ( 0.000000000000000, -3.55000000000000, 0.000000000000000 ) );
#264 = DIRECTION( '', ( 0.000000000000000, 1.00000000000000, 0.000000000000000 ) );
#265 = DIRECTION( '', ( 0.000000000000000, 0.000000000000000, 1.00000000000000 ) );
#266 = CARTESIAN_POINT( '', ( 0.000000000000000, 3.55000000000000, 0.000000000000000 ) );
#267 = DIRECTION( '', ( 0.000000000000000, 1.00000000000000, 0.000000000000000 ) );
#268 = DIRECTION( '', ( 0.000000000000000, 0.000000000000000, 1.00000000000000 ) );
#269 = CARTESIAN_POINT( '', ( 0.000000000000000, 3.75000000000000, 0.000000000000000 ) );
#270 = DIRECTION( '', ( 0.000000000000000, 1.00000000000000, 0.000000000000000 ) );
#271 = DIRECTION( '', ( 0.000000000000000, 0.000000000000000, 1.00000000000000 ) );
ENDSEC;
END-ISO-10303-21;
