ISO-10303-21;
HEADER;
/* Generated by software containing ST-Developer
 * from STEP Tools, Inc. (www.steptools.com) 
 */
/* OPTION: strings as raw bytes, not using required /X/ escapes */

FILE_DESCRIPTION(
/* description */ ('Unknown'),
/* implementation_level */ '2;1');

FILE_NAME(
/* name */ '345025',
/* time_stamp */ '2025-03-13T13:45:34+08:00',
/* author */ ('Unknown'),
/* organization */ ('Unknown'),
/* preprocessor_version */ 'ST-DEVELOPER v19.4',
/* originating_system */ 'Solid Edge',
/* authorisation */ 'Unknown');

FILE_SCHEMA (('AUTOMOTIVE_DESIGN {1 0 10303 214 3 1 1}'));
ENDSEC;

DATA;
#10=PROPERTY_DEFINITION_REPRESENTATION(#14,#12);
#11=PROPERTY_DEFINITION_REPRESENTATION(#15,#13);
#12=REPRESENTATION('',(#16),#537);
#13=REPRESENTATION('',(#17),#537);
#14=PROPERTY_DEFINITION('pmi validation property','',#548);
#15=PROPERTY_DEFINITION('pmi validation property','',#548);
#16=VALUE_REPRESENTATION_ITEM('number of annotations',COUNT_MEASURE(0.));
#17=VALUE_REPRESENTATION_ITEM('number of views',COUNT_MEASURE(0.));
#18=SURFACE_STYLE_RENDERING_WITH_PROPERTIES(.CONSTANT_SHADING.,#20,(#19));
#19=SURFACE_STYLE_TRANSPARENT(0.625);
#20=DRAUGHTING_PRE_DEFINED_COLOUR('white');
#21=CONTEXT_DEPENDENT_SHAPE_REPRESENTATION(#27,#550);
#22=CONTEXT_DEPENDENT_SHAPE_REPRESENTATION(#28,#552);
#23=CONTEXT_DEPENDENT_SHAPE_REPRESENTATION(#29,#554);
#24=NEXT_ASSEMBLY_USAGE_OCCURRENCE('PET film','PET film','PET film',#555,
#556,'');
#25=NEXT_ASSEMBLY_USAGE_OCCURRENCE('Adhesive tape','Adhesive tape',
'Adhesive tape',#555,#557,'');
#26=NEXT_ASSEMBLY_USAGE_OCCURRENCE('WE-FAS','WE-FAS','WE-FAS',#555,#558,
'');
#27=(
REPRESENTATION_RELATIONSHIP(' ',' ',#348,#349)
REPRESENTATION_RELATIONSHIP_WITH_TRANSFORMATION(#30)
SHAPE_REPRESENTATION_RELATIONSHIP()
);
#28=(
REPRESENTATION_RELATIONSHIP(' ',' ',#350,#349)
REPRESENTATION_RELATIONSHIP_WITH_TRANSFORMATION(#31)
SHAPE_REPRESENTATION_RELATIONSHIP()
);
#29=(
REPRESENTATION_RELATIONSHIP(' ',' ',#351,#349)
REPRESENTATION_RELATIONSHIP_WITH_TRANSFORMATION(#32)
SHAPE_REPRESENTATION_RELATIONSHIP()
);
#30=ITEM_DEFINED_TRANSFORMATION(' ',' ',#352,#359);
#31=ITEM_DEFINED_TRANSFORMATION(' ',' ',#352,#366);
#32=ITEM_DEFINED_TRANSFORMATION(' ',' ',#352,#373);
#33=SHAPE_REPRESENTATION_RELATIONSHIP('','',#348,#36);
#34=SHAPE_REPRESENTATION_RELATIONSHIP('','',#350,#37);
#35=SHAPE_REPRESENTATION_RELATIONSHIP('','',#351,#38);
#36=ADVANCED_BREP_SHAPE_REPRESENTATION('',(#341),#538);
#37=ADVANCED_BREP_SHAPE_REPRESENTATION('',(#342),#539);
#38=ADVANCED_BREP_SHAPE_REPRESENTATION('',(#343),#540);
#39=ORIENTED_EDGE('',*,*,#111,.T.);
#40=ORIENTED_EDGE('',*,*,#112,.F.);
#41=ORIENTED_EDGE('',*,*,#113,.F.);
#42=ORIENTED_EDGE('',*,*,#114,.T.);
#43=ORIENTED_EDGE('',*,*,#115,.T.);
#44=ORIENTED_EDGE('',*,*,#116,.F.);
#45=ORIENTED_EDGE('',*,*,#117,.F.);
#46=ORIENTED_EDGE('',*,*,#112,.T.);
#47=ORIENTED_EDGE('',*,*,#118,.T.);
#48=ORIENTED_EDGE('',*,*,#119,.F.);
#49=ORIENTED_EDGE('',*,*,#120,.F.);
#50=ORIENTED_EDGE('',*,*,#116,.T.);
#51=ORIENTED_EDGE('',*,*,#121,.T.);
#52=ORIENTED_EDGE('',*,*,#114,.F.);
#53=ORIENTED_EDGE('',*,*,#122,.F.);
#54=ORIENTED_EDGE('',*,*,#119,.T.);
#55=ORIENTED_EDGE('',*,*,#113,.T.);
#56=ORIENTED_EDGE('',*,*,#117,.T.);
#57=ORIENTED_EDGE('',*,*,#120,.T.);
#58=ORIENTED_EDGE('',*,*,#122,.T.);
#59=ORIENTED_EDGE('',*,*,#111,.F.);
#60=ORIENTED_EDGE('',*,*,#121,.F.);
#61=ORIENTED_EDGE('',*,*,#118,.F.);
#62=ORIENTED_EDGE('',*,*,#115,.F.);
#63=ORIENTED_EDGE('',*,*,#123,.T.);
#64=ORIENTED_EDGE('',*,*,#124,.F.);
#65=ORIENTED_EDGE('',*,*,#125,.F.);
#66=ORIENTED_EDGE('',*,*,#126,.T.);
#67=ORIENTED_EDGE('',*,*,#127,.T.);
#68=ORIENTED_EDGE('',*,*,#128,.F.);
#69=ORIENTED_EDGE('',*,*,#129,.F.);
#70=ORIENTED_EDGE('',*,*,#124,.T.);
#71=ORIENTED_EDGE('',*,*,#130,.T.);
#72=ORIENTED_EDGE('',*,*,#131,.F.);
#73=ORIENTED_EDGE('',*,*,#132,.F.);
#74=ORIENTED_EDGE('',*,*,#128,.T.);
#75=ORIENTED_EDGE('',*,*,#133,.T.);
#76=ORIENTED_EDGE('',*,*,#126,.F.);
#77=ORIENTED_EDGE('',*,*,#134,.F.);
#78=ORIENTED_EDGE('',*,*,#131,.T.);
#79=ORIENTED_EDGE('',*,*,#125,.T.);
#80=ORIENTED_EDGE('',*,*,#129,.T.);
#81=ORIENTED_EDGE('',*,*,#132,.T.);
#82=ORIENTED_EDGE('',*,*,#134,.T.);
#83=ORIENTED_EDGE('',*,*,#123,.F.);
#84=ORIENTED_EDGE('',*,*,#133,.F.);
#85=ORIENTED_EDGE('',*,*,#130,.F.);
#86=ORIENTED_EDGE('',*,*,#127,.F.);
#87=ORIENTED_EDGE('',*,*,#135,.T.);
#88=ORIENTED_EDGE('',*,*,#136,.F.);
#89=ORIENTED_EDGE('',*,*,#137,.F.);
#90=ORIENTED_EDGE('',*,*,#138,.T.);
#91=ORIENTED_EDGE('',*,*,#139,.T.);
#92=ORIENTED_EDGE('',*,*,#140,.F.);
#93=ORIENTED_EDGE('',*,*,#141,.F.);
#94=ORIENTED_EDGE('',*,*,#136,.T.);
#95=ORIENTED_EDGE('',*,*,#142,.T.);
#96=ORIENTED_EDGE('',*,*,#143,.F.);
#97=ORIENTED_EDGE('',*,*,#144,.F.);
#98=ORIENTED_EDGE('',*,*,#140,.T.);
#99=ORIENTED_EDGE('',*,*,#145,.T.);
#100=ORIENTED_EDGE('',*,*,#138,.F.);
#101=ORIENTED_EDGE('',*,*,#146,.F.);
#102=ORIENTED_EDGE('',*,*,#143,.T.);
#103=ORIENTED_EDGE('',*,*,#137,.T.);
#104=ORIENTED_EDGE('',*,*,#141,.T.);
#105=ORIENTED_EDGE('',*,*,#144,.T.);
#106=ORIENTED_EDGE('',*,*,#146,.T.);
#107=ORIENTED_EDGE('',*,*,#135,.F.);
#108=ORIENTED_EDGE('',*,*,#145,.F.);
#109=ORIENTED_EDGE('',*,*,#142,.F.);
#110=ORIENTED_EDGE('',*,*,#139,.F.);
#111=EDGE_CURVE('',#147,#148,#171,.T.);
#112=EDGE_CURVE('',#149,#148,#172,.T.);
#113=EDGE_CURVE('',#150,#149,#173,.T.);
#114=EDGE_CURVE('',#150,#147,#174,.T.);
#115=EDGE_CURVE('',#148,#151,#175,.T.);
#116=EDGE_CURVE('',#152,#151,#176,.T.);
#117=EDGE_CURVE('',#149,#152,#177,.T.);
#118=EDGE_CURVE('',#151,#153,#178,.T.);
#119=EDGE_CURVE('',#154,#153,#179,.T.);
#120=EDGE_CURVE('',#152,#154,#180,.T.);
#121=EDGE_CURVE('',#153,#147,#181,.T.);
#122=EDGE_CURVE('',#154,#150,#182,.T.);
#123=EDGE_CURVE('',#155,#156,#183,.T.);
#124=EDGE_CURVE('',#157,#156,#184,.T.);
#125=EDGE_CURVE('',#158,#157,#185,.T.);
#126=EDGE_CURVE('',#158,#155,#186,.T.);
#127=EDGE_CURVE('',#156,#159,#187,.T.);
#128=EDGE_CURVE('',#160,#159,#188,.T.);
#129=EDGE_CURVE('',#157,#160,#189,.T.);
#130=EDGE_CURVE('',#159,#161,#190,.T.);
#131=EDGE_CURVE('',#162,#161,#191,.T.);
#132=EDGE_CURVE('',#160,#162,#192,.T.);
#133=EDGE_CURVE('',#161,#155,#193,.T.);
#134=EDGE_CURVE('',#162,#158,#194,.T.);
#135=EDGE_CURVE('',#163,#164,#195,.T.);
#136=EDGE_CURVE('',#165,#164,#196,.T.);
#137=EDGE_CURVE('',#166,#165,#197,.T.);
#138=EDGE_CURVE('',#166,#163,#198,.T.);
#139=EDGE_CURVE('',#164,#167,#199,.T.);
#140=EDGE_CURVE('',#168,#167,#200,.T.);
#141=EDGE_CURVE('',#165,#168,#201,.T.);
#142=EDGE_CURVE('',#167,#169,#202,.T.);
#143=EDGE_CURVE('',#170,#169,#203,.T.);
#144=EDGE_CURVE('',#168,#170,#204,.T.);
#145=EDGE_CURVE('',#169,#163,#205,.T.);
#146=EDGE_CURVE('',#170,#166,#206,.T.);
#147=VERTEX_POINT('',#457);
#148=VERTEX_POINT('',#458);
#149=VERTEX_POINT('',#460);
#150=VERTEX_POINT('',#462);
#151=VERTEX_POINT('',#466);
#152=VERTEX_POINT('',#468);
#153=VERTEX_POINT('',#472);
#154=VERTEX_POINT('',#474);
#155=VERTEX_POINT('',#484);
#156=VERTEX_POINT('',#485);
#157=VERTEX_POINT('',#487);
#158=VERTEX_POINT('',#489);
#159=VERTEX_POINT('',#493);
#160=VERTEX_POINT('',#495);
#161=VERTEX_POINT('',#499);
#162=VERTEX_POINT('',#501);
#163=VERTEX_POINT('',#511);
#164=VERTEX_POINT('',#512);
#165=VERTEX_POINT('',#514);
#166=VERTEX_POINT('',#516);
#167=VERTEX_POINT('',#520);
#168=VERTEX_POINT('',#522);
#169=VERTEX_POINT('',#526);
#170=VERTEX_POINT('',#528);
#171=LINE('',#456,#207);
#172=LINE('',#459,#208);
#173=LINE('',#461,#209);
#174=LINE('',#463,#210);
#175=LINE('',#465,#211);
#176=LINE('',#467,#212);
#177=LINE('',#469,#213);
#178=LINE('',#471,#214);
#179=LINE('',#473,#215);
#180=LINE('',#475,#216);
#181=LINE('',#477,#217);
#182=LINE('',#478,#218);
#183=LINE('',#483,#219);
#184=LINE('',#486,#220);
#185=LINE('',#488,#221);
#186=LINE('',#490,#222);
#187=LINE('',#492,#223);
#188=LINE('',#494,#224);
#189=LINE('',#496,#225);
#190=LINE('',#498,#226);
#191=LINE('',#500,#227);
#192=LINE('',#502,#228);
#193=LINE('',#504,#229);
#194=LINE('',#505,#230);
#195=LINE('',#510,#231);
#196=LINE('',#513,#232);
#197=LINE('',#515,#233);
#198=LINE('',#517,#234);
#199=LINE('',#519,#235);
#200=LINE('',#521,#236);
#201=LINE('',#523,#237);
#202=LINE('',#525,#238);
#203=LINE('',#527,#239);
#204=LINE('',#529,#240);
#205=LINE('',#531,#241);
#206=LINE('',#532,#242);
#207=VECTOR('',#378,1000.);
#208=VECTOR('',#379,1000.);
#209=VECTOR('',#380,1000.);
#210=VECTOR('',#381,1000.);
#211=VECTOR('',#384,1000.);
#212=VECTOR('',#385,1000.);
#213=VECTOR('',#386,1000.);
#214=VECTOR('',#389,1000.);
#215=VECTOR('',#390,1000.);
#216=VECTOR('',#391,1000.);
#217=VECTOR('',#394,1000.);
#218=VECTOR('',#395,1000.);
#219=VECTOR('',#404,1000.);
#220=VECTOR('',#405,1000.);
#221=VECTOR('',#406,1000.);
#222=VECTOR('',#407,1000.);
#223=VECTOR('',#410,1000.);
#224=VECTOR('',#411,1000.);
#225=VECTOR('',#412,1000.);
#226=VECTOR('',#415,1000.);
#227=VECTOR('',#416,1000.);
#228=VECTOR('',#417,1000.);
#229=VECTOR('',#420,1000.);
#230=VECTOR('',#421,1000.);
#231=VECTOR('',#430,1000.);
#232=VECTOR('',#431,1000.);
#233=VECTOR('',#432,1000.);
#234=VECTOR('',#433,1000.);
#235=VECTOR('',#436,1000.);
#236=VECTOR('',#437,1000.);
#237=VECTOR('',#438,1000.);
#238=VECTOR('',#441,1000.);
#239=VECTOR('',#442,1000.);
#240=VECTOR('',#443,1000.);
#241=VECTOR('',#446,1000.);
#242=VECTOR('',#447,1000.);
#243=EDGE_LOOP('',(#39,#40,#41,#42));
#244=EDGE_LOOP('',(#43,#44,#45,#46));
#245=EDGE_LOOP('',(#47,#48,#49,#50));
#246=EDGE_LOOP('',(#51,#52,#53,#54));
#247=EDGE_LOOP('',(#55,#56,#57,#58));
#248=EDGE_LOOP('',(#59,#60,#61,#62));
#249=EDGE_LOOP('',(#63,#64,#65,#66));
#250=EDGE_LOOP('',(#67,#68,#69,#70));
#251=EDGE_LOOP('',(#71,#72,#73,#74));
#252=EDGE_LOOP('',(#75,#76,#77,#78));
#253=EDGE_LOOP('',(#79,#80,#81,#82));
#254=EDGE_LOOP('',(#83,#84,#85,#86));
#255=EDGE_LOOP('',(#87,#88,#89,#90));
#256=EDGE_LOOP('',(#91,#92,#93,#94));
#257=EDGE_LOOP('',(#95,#96,#97,#98));
#258=EDGE_LOOP('',(#99,#100,#101,#102));
#259=EDGE_LOOP('',(#103,#104,#105,#106));
#260=EDGE_LOOP('',(#107,#108,#109,#110));
#261=FACE_BOUND('',#243,.T.);
#262=FACE_BOUND('',#244,.T.);
#263=FACE_BOUND('',#245,.T.);
#264=FACE_BOUND('',#246,.T.);
#265=FACE_BOUND('',#247,.T.);
#266=FACE_BOUND('',#248,.T.);
#267=FACE_BOUND('',#249,.T.);
#268=FACE_BOUND('',#250,.T.);
#269=FACE_BOUND('',#251,.T.);
#270=FACE_BOUND('',#252,.T.);
#271=FACE_BOUND('',#253,.T.);
#272=FACE_BOUND('',#254,.T.);
#273=FACE_BOUND('',#255,.T.);
#274=FACE_BOUND('',#256,.T.);
#275=FACE_BOUND('',#257,.T.);
#276=FACE_BOUND('',#258,.T.);
#277=FACE_BOUND('',#259,.T.);
#278=FACE_BOUND('',#260,.T.);
#279=PLANE('',#353);
#280=PLANE('',#354);
#281=PLANE('',#355);
#282=PLANE('',#356);
#283=PLANE('',#357);
#284=PLANE('',#358);
#285=PLANE('',#360);
#286=PLANE('',#361);
#287=PLANE('',#362);
#288=PLANE('',#363);
#289=PLANE('',#364);
#290=PLANE('',#365);
#291=PLANE('',#367);
#292=PLANE('',#368);
#293=PLANE('',#369);
#294=PLANE('',#370);
#295=PLANE('',#371);
#296=PLANE('',#372);
#297=ADVANCED_FACE('',(#261),#279,.F.);
#298=ADVANCED_FACE('',(#262),#280,.F.);
#299=ADVANCED_FACE('',(#263),#281,.F.);
#300=ADVANCED_FACE('',(#264),#282,.F.);
#301=ADVANCED_FACE('',(#265),#283,.T.);
#302=ADVANCED_FACE('',(#266),#284,.F.);
#303=ADVANCED_FACE('',(#267),#285,.F.);
#304=ADVANCED_FACE('',(#268),#286,.F.);
#305=ADVANCED_FACE('',(#269),#287,.F.);
#306=ADVANCED_FACE('',(#270),#288,.F.);
#307=ADVANCED_FACE('',(#271),#289,.T.);
#308=ADVANCED_FACE('',(#272),#290,.F.);
#309=ADVANCED_FACE('',(#273),#291,.F.);
#310=ADVANCED_FACE('',(#274),#292,.F.);
#311=ADVANCED_FACE('',(#275),#293,.F.);
#312=ADVANCED_FACE('',(#276),#294,.F.);
#313=ADVANCED_FACE('',(#277),#295,.T.);
#314=ADVANCED_FACE('',(#278),#296,.F.);
#315=CLOSED_SHELL('',(#297,#298,#299,#300,#301,#302));
#316=CLOSED_SHELL('',(#303,#304,#305,#306,#307,#308));
#317=CLOSED_SHELL('',(#309,#310,#311,#312,#313,#314));
#318=STYLED_ITEM('',(#321),#341);
#319=STYLED_ITEM('',(#322),#342);
#320=STYLED_ITEM('',(#323),#343);
#321=PRESENTATION_STYLE_ASSIGNMENT((#324));
#322=PRESENTATION_STYLE_ASSIGNMENT((#325));
#323=PRESENTATION_STYLE_ASSIGNMENT((#326));
#324=SURFACE_STYLE_USAGE(.BOTH.,#327);
#325=SURFACE_STYLE_USAGE(.BOTH.,#328);
#326=SURFACE_STYLE_USAGE(.BOTH.,#329);
#327=SURFACE_SIDE_STYLE('',(#330));
#328=SURFACE_SIDE_STYLE('',(#331,#18));
#329=SURFACE_SIDE_STYLE('',(#332));
#330=SURFACE_STYLE_FILL_AREA(#333);
#331=SURFACE_STYLE_FILL_AREA(#334);
#332=SURFACE_STYLE_FILL_AREA(#335);
#333=FILL_AREA_STYLE('',(#336));
#334=FILL_AREA_STYLE('',(#337));
#335=FILL_AREA_STYLE('',(#338));
#336=FILL_AREA_STYLE_COLOUR('',#339);
#337=FILL_AREA_STYLE_COLOUR('',#20);
#338=FILL_AREA_STYLE_COLOUR('',#340);
#339=COLOUR_RGB('',0.,0.25,0.75);
#340=COLOUR_RGB('',0.200000002980232,0.200000002980232,0.200000002980232);
#341=MANIFOLD_SOLID_BREP('',#315);
#342=MANIFOLD_SOLID_BREP('',#316);
#343=MANIFOLD_SOLID_BREP('',#317);
#344=SHAPE_DEFINITION_REPRESENTATION(#549,#348);
#345=SHAPE_DEFINITION_REPRESENTATION(#548,#349);
#346=SHAPE_DEFINITION_REPRESENTATION(#551,#350);
#347=SHAPE_DEFINITION_REPRESENTATION(#553,#351);
#348=SHAPE_REPRESENTATION('PET film',(#352),#538);
#349=SHAPE_REPRESENTATION('345025',(#352,#359,#366,#373),#537);
#350=SHAPE_REPRESENTATION('Adhesive tape',(#352),#539);
#351=SHAPE_REPRESENTATION('WE-FAS',(#352),#540);
#352=AXIS2_PLACEMENT_3D('',#454,#374,#375);
#353=AXIS2_PLACEMENT_3D('',#455,#376,#377);
#354=AXIS2_PLACEMENT_3D('',#464,#382,#383);
#355=AXIS2_PLACEMENT_3D('',#470,#387,#388);
#356=AXIS2_PLACEMENT_3D('',#476,#392,#393);
#357=AXIS2_PLACEMENT_3D('',#479,#396,#397);
#358=AXIS2_PLACEMENT_3D('',#480,#398,#399);
#359=AXIS2_PLACEMENT_3D('',#481,#400,#401);
#360=AXIS2_PLACEMENT_3D('',#482,#402,#403);
#361=AXIS2_PLACEMENT_3D('',#491,#408,#409);
#362=AXIS2_PLACEMENT_3D('',#497,#413,#414);
#363=AXIS2_PLACEMENT_3D('',#503,#418,#419);
#364=AXIS2_PLACEMENT_3D('',#506,#422,#423);
#365=AXIS2_PLACEMENT_3D('',#507,#424,#425);
#366=AXIS2_PLACEMENT_3D('',#508,#426,#427);
#367=AXIS2_PLACEMENT_3D('',#509,#428,#429);
#368=AXIS2_PLACEMENT_3D('',#518,#434,#435);
#369=AXIS2_PLACEMENT_3D('',#524,#439,#440);
#370=AXIS2_PLACEMENT_3D('',#530,#444,#445);
#371=AXIS2_PLACEMENT_3D('',#533,#448,#449);
#372=AXIS2_PLACEMENT_3D('',#534,#450,#451);
#373=AXIS2_PLACEMENT_3D('',#535,#452,#453);
#374=DIRECTION('',(0.,0.,1.));
#375=DIRECTION('',(1.,0.,0.));
#376=DIRECTION('',(1.,0.,0.));
#377=DIRECTION('',(0.,0.,-1.));
#378=DIRECTION('',(0.,-1.,0.));
#379=DIRECTION('',(0.,0.,-1.));
#380=DIRECTION('',(0.,-1.,0.));
#381=DIRECTION('',(0.,0.,-1.));
#382=DIRECTION('',(-9.34531165509391E-17,1.,0.));
#383=DIRECTION('',(-1.,-9.34531165509391E-17,0.));
#384=DIRECTION('',(1.,9.34531165509391E-17,0.));
#385=DIRECTION('',(0.,0.,-1.));
#386=DIRECTION('',(1.,9.34531165509391E-17,0.));
#387=DIRECTION('',(-1.,0.,0.));
#388=DIRECTION('',(0.,0.,1.));
#389=DIRECTION('',(0.,1.,0.));
#390=DIRECTION('',(0.,0.,-1.));
#391=DIRECTION('',(0.,1.,0.));
#392=DIRECTION('',(-9.34531165509391E-17,-1.,0.));
#393=DIRECTION('',(1.,-9.34531165509391E-17,0.));
#394=DIRECTION('',(-1.,9.34531165509391E-17,0.));
#395=DIRECTION('',(-1.,9.34531165509391E-17,0.));
#396=DIRECTION('',(0.,0.,1.));
#397=DIRECTION('',(1.,0.,0.));
#398=DIRECTION('',(0.,0.,1.));
#399=DIRECTION('',(1.,0.,0.));
#400=DIRECTION('',(0.,0.,1.));
#401=DIRECTION('',(1.,0.,0.));
#402=DIRECTION('',(1.,0.,0.));
#403=DIRECTION('',(0.,0.,-1.));
#404=DIRECTION('',(0.,-1.,0.));
#405=DIRECTION('',(0.,0.,-1.));
#406=DIRECTION('',(0.,-1.,0.));
#407=DIRECTION('',(0.,0.,-1.));
#408=DIRECTION('',(-9.34531165509391E-17,1.,0.));
#409=DIRECTION('',(-1.,-9.34531165509391E-17,0.));
#410=DIRECTION('',(1.,9.34531165509391E-17,0.));
#411=DIRECTION('',(0.,0.,-1.));
#412=DIRECTION('',(1.,9.34531165509391E-17,0.));
#413=DIRECTION('',(-1.,0.,0.));
#414=DIRECTION('',(0.,0.,1.));
#415=DIRECTION('',(0.,1.,0.));
#416=DIRECTION('',(0.,0.,-1.));
#417=DIRECTION('',(0.,1.,0.));
#418=DIRECTION('',(-9.34531165509391E-17,-1.,0.));
#419=DIRECTION('',(1.,-9.34531165509391E-17,0.));
#420=DIRECTION('',(-1.,9.34531165509391E-17,0.));
#421=DIRECTION('',(-1.,9.34531165509391E-17,0.));
#422=DIRECTION('',(0.,0.,1.));
#423=DIRECTION('',(1.,0.,0.));
#424=DIRECTION('',(0.,0.,1.));
#425=DIRECTION('',(1.,0.,0.));
#426=DIRECTION('',(7.4554975453019E-17,3.01928945845189E-16,1.));
#427=DIRECTION('',(1.,8.32667268468868E-17,-7.4554975453019E-17));
#428=DIRECTION('',(1.,0.,0.));
#429=DIRECTION('',(0.,0.,-1.));
#430=DIRECTION('',(0.,-1.,0.));
#431=DIRECTION('',(0.,0.,-1.));
#432=DIRECTION('',(0.,-1.,0.));
#433=DIRECTION('',(0.,0.,-1.));
#434=DIRECTION('',(-9.34531165509391E-17,1.,0.));
#435=DIRECTION('',(-1.,-9.34531165509391E-17,0.));
#436=DIRECTION('',(1.,9.34531165509391E-17,0.));
#437=DIRECTION('',(0.,0.,-1.));
#438=DIRECTION('',(1.,9.34531165509391E-17,0.));
#439=DIRECTION('',(-1.,0.,0.));
#440=DIRECTION('',(0.,0.,1.));
#441=DIRECTION('',(0.,1.,0.));
#442=DIRECTION('',(0.,0.,-1.));
#443=DIRECTION('',(0.,1.,0.));
#444=DIRECTION('',(-9.34531165509391E-17,-1.,0.));
#445=DIRECTION('',(1.,-9.34531165509391E-17,0.));
#446=DIRECTION('',(-1.,9.34531165509391E-17,0.));
#447=DIRECTION('',(-1.,9.34531165509391E-17,0.));
#448=DIRECTION('',(0.,0.,1.));
#449=DIRECTION('',(1.,0.,0.));
#450=DIRECTION('',(0.,0.,1.));
#451=DIRECTION('',(1.,0.,0.));
#452=DIRECTION('',(-1.95561910932554E-16,7.4124849544913E-17,1.));
#453=DIRECTION('',(1.,-4.82253126321552E-16,1.95561910932554E-16));
#454=CARTESIAN_POINT('',(0.,0.,0.));
#455=CARTESIAN_POINT('',(-148.5,105.,0.075));
#456=CARTESIAN_POINT('',(-148.5,105.,0.));
#457=CARTESIAN_POINT('',(-148.5,105.,0.));
#458=CARTESIAN_POINT('',(-148.5,-105.,0.));
#459=CARTESIAN_POINT('',(-148.5,-105.,0.075));
#460=CARTESIAN_POINT('',(-148.5,-105.,0.075));
#461=CARTESIAN_POINT('',(-148.5,105.,0.075));
#462=CARTESIAN_POINT('',(-148.5,105.,0.075));
#463=CARTESIAN_POINT('',(-148.5,105.,0.075));
#464=CARTESIAN_POINT('',(-148.5,-105.,0.075));
#465=CARTESIAN_POINT('',(-148.5,-105.,0.));
#466=CARTESIAN_POINT('',(148.5,-105.,0.));
#467=CARTESIAN_POINT('',(148.5,-105.,0.075));
#468=CARTESIAN_POINT('',(148.5,-105.,0.075));
#469=CARTESIAN_POINT('',(-148.5,-105.,0.075));
#470=CARTESIAN_POINT('',(148.5,-105.,0.075));
#471=CARTESIAN_POINT('',(148.5,-105.,0.));
#472=CARTESIAN_POINT('',(148.5,105.,0.));
#473=CARTESIAN_POINT('',(148.5,105.,0.075));
#474=CARTESIAN_POINT('',(148.5,105.,0.075));
#475=CARTESIAN_POINT('',(148.5,-105.,0.075));
#476=CARTESIAN_POINT('',(148.5,105.,0.075));
#477=CARTESIAN_POINT('',(148.5,105.,0.));
#478=CARTESIAN_POINT('',(148.5,105.,0.075));
#479=CARTESIAN_POINT('',(-148.5,-105.,0.075));
#480=CARTESIAN_POINT('',(-148.5,-105.,0.));
#481=CARTESIAN_POINT('',(0.,0.,0.));
#482=CARTESIAN_POINT('',(-148.5,105.,0.03));
#483=CARTESIAN_POINT('',(-148.5,105.,0.));
#484=CARTESIAN_POINT('',(-148.5,105.,0.));
#485=CARTESIAN_POINT('',(-148.5,-105.,0.));
#486=CARTESIAN_POINT('',(-148.5,-105.,0.03));
#487=CARTESIAN_POINT('',(-148.5,-105.,0.03));
#488=CARTESIAN_POINT('',(-148.5,105.,0.03));
#489=CARTESIAN_POINT('',(-148.5,105.,0.03));
#490=CARTESIAN_POINT('',(-148.5,105.,0.03));
#491=CARTESIAN_POINT('',(-148.5,-105.,0.03));
#492=CARTESIAN_POINT('',(-148.5,-105.,0.));
#493=CARTESIAN_POINT('',(148.5,-105.,0.));
#494=CARTESIAN_POINT('',(148.5,-105.,0.03));
#495=CARTESIAN_POINT('',(148.5,-105.,0.03));
#496=CARTESIAN_POINT('',(-148.5,-105.,0.03));
#497=CARTESIAN_POINT('',(148.5,-105.,0.03));
#498=CARTESIAN_POINT('',(148.5,-105.,0.));
#499=CARTESIAN_POINT('',(148.5,105.,0.));
#500=CARTESIAN_POINT('',(148.5,105.,0.03));
#501=CARTESIAN_POINT('',(148.5,105.,0.03));
#502=CARTESIAN_POINT('',(148.5,-105.,0.03));
#503=CARTESIAN_POINT('',(148.5,105.,0.03));
#504=CARTESIAN_POINT('',(148.5,105.,0.));
#505=CARTESIAN_POINT('',(148.5,105.,0.03));
#506=CARTESIAN_POINT('',(-148.5,-105.,0.03));
#507=CARTESIAN_POINT('',(-148.5,-105.,0.));
#508=CARTESIAN_POINT('',(5.09702494398704E-14,-2.16840434497101E-14,-2.52999999999982));
#509=CARTESIAN_POINT('',(-148.5,105.,2.5));
#510=CARTESIAN_POINT('',(-148.5,105.,0.));
#511=CARTESIAN_POINT('',(-148.5,105.,0.));
#512=CARTESIAN_POINT('',(-148.5,-105.,0.));
#513=CARTESIAN_POINT('',(-148.5,-105.,2.5));
#514=CARTESIAN_POINT('',(-148.5,-105.,2.5));
#515=CARTESIAN_POINT('',(-148.5,105.,2.5));
#516=CARTESIAN_POINT('',(-148.5,105.,2.5));
#517=CARTESIAN_POINT('',(-148.5,105.,2.5));
#518=CARTESIAN_POINT('',(-148.5,-105.,2.5));
#519=CARTESIAN_POINT('',(-148.5,-105.,0.));
#520=CARTESIAN_POINT('',(148.5,-105.,0.));
#521=CARTESIAN_POINT('',(148.5,-105.,2.5));
#522=CARTESIAN_POINT('',(148.5,-105.,2.5));
#523=CARTESIAN_POINT('',(-148.5,-105.,2.5));
#524=CARTESIAN_POINT('',(148.5,-105.,2.5));
#525=CARTESIAN_POINT('',(148.5,-105.,0.));
#526=CARTESIAN_POINT('',(148.5,105.,0.));
#527=CARTESIAN_POINT('',(148.5,105.,2.5));
#528=CARTESIAN_POINT('',(148.5,105.,2.5));
#529=CARTESIAN_POINT('',(148.5,-105.,2.5));
#530=CARTESIAN_POINT('',(148.5,105.,2.5));
#531=CARTESIAN_POINT('',(148.5,105.,0.));
#532=CARTESIAN_POINT('',(148.5,105.,2.5));
#533=CARTESIAN_POINT('',(-148.5,-105.,2.5));
#534=CARTESIAN_POINT('',(-148.5,-105.,0.));
#535=CARTESIAN_POINT('',(-1.69764474650335E-13,-2.23351771557279E-13,-2.49999999999991));
#536=MECHANICAL_DESIGN_GEOMETRIC_PRESENTATION_REPRESENTATION('',(#318,#319,
#320),#537);
#537=(
GEOMETRIC_REPRESENTATION_CONTEXT(3)
GLOBAL_UNCERTAINTY_ASSIGNED_CONTEXT((#541))
GLOBAL_UNIT_ASSIGNED_CONTEXT((#547,#546,#545))
REPRESENTATION_CONTEXT('345025','TOP_LEVEL_ASSEMBLY_PART')
);
#538=(
GEOMETRIC_REPRESENTATION_CONTEXT(3)
GLOBAL_UNCERTAINTY_ASSIGNED_CONTEXT((#542))
GLOBAL_UNIT_ASSIGNED_CONTEXT((#547,#546,#545))
REPRESENTATION_CONTEXT('PET film','COMPONENT_PART')
);
#539=(
GEOMETRIC_REPRESENTATION_CONTEXT(3)
GLOBAL_UNCERTAINTY_ASSIGNED_CONTEXT((#543))
GLOBAL_UNIT_ASSIGNED_CONTEXT((#547,#546,#545))
REPRESENTATION_CONTEXT('Adhesive tape','COMPONENT_PART')
);
#540=(
GEOMETRIC_REPRESENTATION_CONTEXT(3)
GLOBAL_UNCERTAINTY_ASSIGNED_CONTEXT((#544))
GLOBAL_UNIT_ASSIGNED_CONTEXT((#547,#546,#545))
REPRESENTATION_CONTEXT('WE-FAS','COMPONENT_PART')
);
#541=UNCERTAINTY_MEASURE_WITH_UNIT(LENGTH_MEASURE(0.005),#547,
'DISTANCE_ACCURACY_VALUE','Maximum Tolerance applied to model');
#542=UNCERTAINTY_MEASURE_WITH_UNIT(LENGTH_MEASURE(0.005),#547,
'DISTANCE_ACCURACY_VALUE','Maximum Tolerance applied to model');
#543=UNCERTAINTY_MEASURE_WITH_UNIT(LENGTH_MEASURE(0.005),#547,
'DISTANCE_ACCURACY_VALUE','Maximum Tolerance applied to model');
#544=UNCERTAINTY_MEASURE_WITH_UNIT(LENGTH_MEASURE(0.005),#547,
'DISTANCE_ACCURACY_VALUE','Maximum Tolerance applied to model');
#545=(
NAMED_UNIT(*)
SI_UNIT($,.STERADIAN.)
SOLID_ANGLE_UNIT()
);
#546=(
NAMED_UNIT(*)
PLANE_ANGLE_UNIT()
SI_UNIT($,.RADIAN.)
);
#547=(
LENGTH_UNIT()
NAMED_UNIT(*)
SI_UNIT(.MILLI.,.METRE.)
);
#548=PRODUCT_DEFINITION_SHAPE('','',#555);
#549=PRODUCT_DEFINITION_SHAPE('','',#556);
#550=PRODUCT_DEFINITION_SHAPE(' ','NAUO PRDDFN',#24);
#551=PRODUCT_DEFINITION_SHAPE('','',#557);
#552=PRODUCT_DEFINITION_SHAPE(' ','NAUO PRDDFN',#25);
#553=PRODUCT_DEFINITION_SHAPE('','',#558);
#554=PRODUCT_DEFINITION_SHAPE(' ','NAUO PRDDFN',#26);
#555=PRODUCT_DEFINITION('','',#563,#559);
#556=PRODUCT_DEFINITION('','',#564,#560);
#557=PRODUCT_DEFINITION('','',#565,#561);
#558=PRODUCT_DEFINITION('','',#566,#562);
#559=PRODUCT_DEFINITION_CONTEXT('',#584,'design');
#560=PRODUCT_DEFINITION_CONTEXT('',#584,'design');
#561=PRODUCT_DEFINITION_CONTEXT('',#584,'design');
#562=PRODUCT_DEFINITION_CONTEXT('',#584,'design');
#563=PRODUCT_DEFINITION_FORMATION_WITH_SPECIFIED_SOURCE('','',#571,
 .NOT_KNOWN.);
#564=PRODUCT_DEFINITION_FORMATION_WITH_SPECIFIED_SOURCE('','',#572,
 .NOT_KNOWN.);
#565=PRODUCT_DEFINITION_FORMATION_WITH_SPECIFIED_SOURCE('','',#573,
 .NOT_KNOWN.);
#566=PRODUCT_DEFINITION_FORMATION_WITH_SPECIFIED_SOURCE('','',#574,
 .NOT_KNOWN.);
#567=PRODUCT_RELATED_PRODUCT_CATEGORY('','',(#571));
#568=PRODUCT_RELATED_PRODUCT_CATEGORY('','',(#572));
#569=PRODUCT_RELATED_PRODUCT_CATEGORY('','',(#573));
#570=PRODUCT_RELATED_PRODUCT_CATEGORY('','',(#574));
#571=PRODUCT('345025','345025','345025',(#579));
#572=PRODUCT('PET film','PET film','PET film',(#580));
#573=PRODUCT('Adhesive tape','Adhesive tape','Adhesive tape',(#581));
#574=PRODUCT('WE-FAS','WE-FAS','WE-FAS',(#582));
#575=PRODUCT_CATEGORY('','');
#576=PRODUCT_CATEGORY('','');
#577=PRODUCT_CATEGORY('','');
#578=PRODUCT_CATEGORY('','');
#579=PRODUCT_CONTEXT('',#584,'mechanical');
#580=PRODUCT_CONTEXT('',#584,'mechanical');
#581=PRODUCT_CONTEXT('',#584,'mechanical');
#582=PRODUCT_CONTEXT('',#584,'mechanical');
#583=APPLICATION_PROTOCOL_DEFINITION('international standard',
'automotive_design',2010,#584);
#584=APPLICATION_CONTEXT(
'core data for automotive mechanical design processes');
ENDSEC;
END-ISO-10303-21;
