ISO-10303-21;
HEADER;
/* Generated by software containing ST-Developer
 * from STEP Tools, Inc. (www.steptools.com) 
 */
/* OPTION: strings as raw bytes, not using required /X/ escapes */

FILE_DESCRIPTION(
/* description */ ('Unknown'),
/* implementation_level */ '2;1');

FILE_NAME(
/* name */ '345005',
/* time_stamp */ '2025-03-13T09:42:47+08:00',
/* author */ ('Unknown'),
/* organization */ ('Unknown'),
/* preprocessor_version */ 'ST-DEVELOPER v19.4',
/* originating_system */ 'Solid Edge',
/* authorisation */ 'Unknown');

FILE_SCHEMA (('AUTOMOTIVE_DESIGN {1 0 10303 214 3 1 1}'));
ENDSEC;

DATA;
#10=PROPERTY_DEFINITION_REPRESENTATION(#14,#12);
#11=PROPERTY_DEFINITION_REPRESENTATION(#15,#13);
#12=REPRESENTATION('',(#16),#537);
#13=REPRESENTATION('',(#17),#537);
#14=PROPERTY_DEFINITION('pmi validation property','',#548);
#15=PROPERTY_DEFINITION('pmi validation property','',#548);
#16=VALUE_REPRESENTATION_ITEM('number of annotations',COUNT_MEASURE(0.));
#17=VALUE_REPRESENTATION_ITEM('number of views',COUNT_MEASURE(0.));
#18=COLOUR_RGB('',0.,0.,0.800000011920929);
#19=COLOUR_RGB('',0.200000002980232,0.200000002980232,0.200000002980232);
#20=CONTEXT_DEPENDENT_SHAPE_REPRESENTATION(#26,#550);
#21=CONTEXT_DEPENDENT_SHAPE_REPRESENTATION(#27,#552);
#22=CONTEXT_DEPENDENT_SHAPE_REPRESENTATION(#28,#554);
#23=NEXT_ASSEMBLY_USAGE_OCCURRENCE('Adhesive tape','Adhesive tape',
'Adhesive tape',#555,#556,'');
#24=NEXT_ASSEMBLY_USAGE_OCCURRENCE('PET film','PET film','PET film',#555,
#557,'');
#25=NEXT_ASSEMBLY_USAGE_OCCURRENCE('WE-FAS','WE-FAS','WE-FAS',#555,#558,
'');
#26=(
REPRESENTATION_RELATIONSHIP(' ',' ',#348,#349)
REPRESENTATION_RELATIONSHIP_WITH_TRANSFORMATION(#29)
SHAPE_REPRESENTATION_RELATIONSHIP()
);
#27=(
REPRESENTATION_RELATIONSHIP(' ',' ',#350,#349)
REPRESENTATION_RELATIONSHIP_WITH_TRANSFORMATION(#30)
SHAPE_REPRESENTATION_RELATIONSHIP()
);
#28=(
REPRESENTATION_RELATIONSHIP(' ',' ',#351,#349)
REPRESENTATION_RELATIONSHIP_WITH_TRANSFORMATION(#31)
SHAPE_REPRESENTATION_RELATIONSHIP()
);
#29=ITEM_DEFINED_TRANSFORMATION(' ',' ',#352,#359);
#30=ITEM_DEFINED_TRANSFORMATION(' ',' ',#352,#366);
#31=ITEM_DEFINED_TRANSFORMATION(' ',' ',#352,#373);
#32=SHAPE_REPRESENTATION_RELATIONSHIP('','',#348,#35);
#33=SHAPE_REPRESENTATION_RELATIONSHIP('','',#350,#36);
#34=SHAPE_REPRESENTATION_RELATIONSHIP('','',#351,#37);
#35=ADVANCED_BREP_SHAPE_REPRESENTATION('',(#341),#538);
#36=ADVANCED_BREP_SHAPE_REPRESENTATION('',(#342),#539);
#37=ADVANCED_BREP_SHAPE_REPRESENTATION('',(#343),#540);
#38=ORIENTED_EDGE('',*,*,#110,.T.);
#39=ORIENTED_EDGE('',*,*,#111,.F.);
#40=ORIENTED_EDGE('',*,*,#112,.F.);
#41=ORIENTED_EDGE('',*,*,#113,.T.);
#42=ORIENTED_EDGE('',*,*,#114,.T.);
#43=ORIENTED_EDGE('',*,*,#115,.F.);
#44=ORIENTED_EDGE('',*,*,#116,.F.);
#45=ORIENTED_EDGE('',*,*,#111,.T.);
#46=ORIENTED_EDGE('',*,*,#117,.T.);
#47=ORIENTED_EDGE('',*,*,#118,.F.);
#48=ORIENTED_EDGE('',*,*,#119,.F.);
#49=ORIENTED_EDGE('',*,*,#115,.T.);
#50=ORIENTED_EDGE('',*,*,#120,.T.);
#51=ORIENTED_EDGE('',*,*,#113,.F.);
#52=ORIENTED_EDGE('',*,*,#121,.F.);
#53=ORIENTED_EDGE('',*,*,#118,.T.);
#54=ORIENTED_EDGE('',*,*,#112,.T.);
#55=ORIENTED_EDGE('',*,*,#116,.T.);
#56=ORIENTED_EDGE('',*,*,#119,.T.);
#57=ORIENTED_EDGE('',*,*,#121,.T.);
#58=ORIENTED_EDGE('',*,*,#110,.F.);
#59=ORIENTED_EDGE('',*,*,#120,.F.);
#60=ORIENTED_EDGE('',*,*,#117,.F.);
#61=ORIENTED_EDGE('',*,*,#114,.F.);
#62=ORIENTED_EDGE('',*,*,#122,.T.);
#63=ORIENTED_EDGE('',*,*,#123,.F.);
#64=ORIENTED_EDGE('',*,*,#124,.F.);
#65=ORIENTED_EDGE('',*,*,#125,.T.);
#66=ORIENTED_EDGE('',*,*,#126,.T.);
#67=ORIENTED_EDGE('',*,*,#127,.F.);
#68=ORIENTED_EDGE('',*,*,#128,.F.);
#69=ORIENTED_EDGE('',*,*,#123,.T.);
#70=ORIENTED_EDGE('',*,*,#129,.T.);
#71=ORIENTED_EDGE('',*,*,#130,.F.);
#72=ORIENTED_EDGE('',*,*,#131,.F.);
#73=ORIENTED_EDGE('',*,*,#127,.T.);
#74=ORIENTED_EDGE('',*,*,#132,.T.);
#75=ORIENTED_EDGE('',*,*,#125,.F.);
#76=ORIENTED_EDGE('',*,*,#133,.F.);
#77=ORIENTED_EDGE('',*,*,#130,.T.);
#78=ORIENTED_EDGE('',*,*,#124,.T.);
#79=ORIENTED_EDGE('',*,*,#128,.T.);
#80=ORIENTED_EDGE('',*,*,#131,.T.);
#81=ORIENTED_EDGE('',*,*,#133,.T.);
#82=ORIENTED_EDGE('',*,*,#122,.F.);
#83=ORIENTED_EDGE('',*,*,#132,.F.);
#84=ORIENTED_EDGE('',*,*,#129,.F.);
#85=ORIENTED_EDGE('',*,*,#126,.F.);
#86=ORIENTED_EDGE('',*,*,#134,.T.);
#87=ORIENTED_EDGE('',*,*,#135,.F.);
#88=ORIENTED_EDGE('',*,*,#136,.F.);
#89=ORIENTED_EDGE('',*,*,#137,.T.);
#90=ORIENTED_EDGE('',*,*,#138,.T.);
#91=ORIENTED_EDGE('',*,*,#139,.F.);
#92=ORIENTED_EDGE('',*,*,#140,.F.);
#93=ORIENTED_EDGE('',*,*,#135,.T.);
#94=ORIENTED_EDGE('',*,*,#141,.T.);
#95=ORIENTED_EDGE('',*,*,#142,.F.);
#96=ORIENTED_EDGE('',*,*,#143,.F.);
#97=ORIENTED_EDGE('',*,*,#139,.T.);
#98=ORIENTED_EDGE('',*,*,#144,.T.);
#99=ORIENTED_EDGE('',*,*,#137,.F.);
#100=ORIENTED_EDGE('',*,*,#145,.F.);
#101=ORIENTED_EDGE('',*,*,#142,.T.);
#102=ORIENTED_EDGE('',*,*,#136,.T.);
#103=ORIENTED_EDGE('',*,*,#140,.T.);
#104=ORIENTED_EDGE('',*,*,#143,.T.);
#105=ORIENTED_EDGE('',*,*,#145,.T.);
#106=ORIENTED_EDGE('',*,*,#134,.F.);
#107=ORIENTED_EDGE('',*,*,#144,.F.);
#108=ORIENTED_EDGE('',*,*,#141,.F.);
#109=ORIENTED_EDGE('',*,*,#138,.F.);
#110=EDGE_CURVE('',#146,#147,#170,.T.);
#111=EDGE_CURVE('',#148,#147,#171,.T.);
#112=EDGE_CURVE('',#149,#148,#172,.T.);
#113=EDGE_CURVE('',#149,#146,#173,.T.);
#114=EDGE_CURVE('',#147,#150,#174,.T.);
#115=EDGE_CURVE('',#151,#150,#175,.T.);
#116=EDGE_CURVE('',#148,#151,#176,.T.);
#117=EDGE_CURVE('',#150,#152,#177,.T.);
#118=EDGE_CURVE('',#153,#152,#178,.T.);
#119=EDGE_CURVE('',#151,#153,#179,.T.);
#120=EDGE_CURVE('',#152,#146,#180,.T.);
#121=EDGE_CURVE('',#153,#149,#181,.T.);
#122=EDGE_CURVE('',#154,#155,#182,.T.);
#123=EDGE_CURVE('',#156,#155,#183,.T.);
#124=EDGE_CURVE('',#157,#156,#184,.T.);
#125=EDGE_CURVE('',#157,#154,#185,.T.);
#126=EDGE_CURVE('',#155,#158,#186,.T.);
#127=EDGE_CURVE('',#159,#158,#187,.T.);
#128=EDGE_CURVE('',#156,#159,#188,.T.);
#129=EDGE_CURVE('',#158,#160,#189,.T.);
#130=EDGE_CURVE('',#161,#160,#190,.T.);
#131=EDGE_CURVE('',#159,#161,#191,.T.);
#132=EDGE_CURVE('',#160,#154,#192,.T.);
#133=EDGE_CURVE('',#161,#157,#193,.T.);
#134=EDGE_CURVE('',#162,#163,#194,.T.);
#135=EDGE_CURVE('',#164,#163,#195,.T.);
#136=EDGE_CURVE('',#165,#164,#196,.T.);
#137=EDGE_CURVE('',#165,#162,#197,.T.);
#138=EDGE_CURVE('',#163,#166,#198,.T.);
#139=EDGE_CURVE('',#167,#166,#199,.T.);
#140=EDGE_CURVE('',#164,#167,#200,.T.);
#141=EDGE_CURVE('',#166,#168,#201,.T.);
#142=EDGE_CURVE('',#169,#168,#202,.T.);
#143=EDGE_CURVE('',#167,#169,#203,.T.);
#144=EDGE_CURVE('',#168,#162,#204,.T.);
#145=EDGE_CURVE('',#169,#165,#205,.T.);
#146=VERTEX_POINT('',#457);
#147=VERTEX_POINT('',#458);
#148=VERTEX_POINT('',#460);
#149=VERTEX_POINT('',#462);
#150=VERTEX_POINT('',#466);
#151=VERTEX_POINT('',#468);
#152=VERTEX_POINT('',#472);
#153=VERTEX_POINT('',#474);
#154=VERTEX_POINT('',#484);
#155=VERTEX_POINT('',#485);
#156=VERTEX_POINT('',#487);
#157=VERTEX_POINT('',#489);
#158=VERTEX_POINT('',#493);
#159=VERTEX_POINT('',#495);
#160=VERTEX_POINT('',#499);
#161=VERTEX_POINT('',#501);
#162=VERTEX_POINT('',#511);
#163=VERTEX_POINT('',#512);
#164=VERTEX_POINT('',#514);
#165=VERTEX_POINT('',#516);
#166=VERTEX_POINT('',#520);
#167=VERTEX_POINT('',#522);
#168=VERTEX_POINT('',#526);
#169=VERTEX_POINT('',#528);
#170=LINE('',#456,#206);
#171=LINE('',#459,#207);
#172=LINE('',#461,#208);
#173=LINE('',#463,#209);
#174=LINE('',#465,#210);
#175=LINE('',#467,#211);
#176=LINE('',#469,#212);
#177=LINE('',#471,#213);
#178=LINE('',#473,#214);
#179=LINE('',#475,#215);
#180=LINE('',#477,#216);
#181=LINE('',#478,#217);
#182=LINE('',#483,#218);
#183=LINE('',#486,#219);
#184=LINE('',#488,#220);
#185=LINE('',#490,#221);
#186=LINE('',#492,#222);
#187=LINE('',#494,#223);
#188=LINE('',#496,#224);
#189=LINE('',#498,#225);
#190=LINE('',#500,#226);
#191=LINE('',#502,#227);
#192=LINE('',#504,#228);
#193=LINE('',#505,#229);
#194=LINE('',#510,#230);
#195=LINE('',#513,#231);
#196=LINE('',#515,#232);
#197=LINE('',#517,#233);
#198=LINE('',#519,#234);
#199=LINE('',#521,#235);
#200=LINE('',#523,#236);
#201=LINE('',#525,#237);
#202=LINE('',#527,#238);
#203=LINE('',#529,#239);
#204=LINE('',#531,#240);
#205=LINE('',#532,#241);
#206=VECTOR('',#378,1000.);
#207=VECTOR('',#379,1000.);
#208=VECTOR('',#380,1000.);
#209=VECTOR('',#381,1000.);
#210=VECTOR('',#384,1000.);
#211=VECTOR('',#385,1000.);
#212=VECTOR('',#386,1000.);
#213=VECTOR('',#389,1000.);
#214=VECTOR('',#390,1000.);
#215=VECTOR('',#391,1000.);
#216=VECTOR('',#394,1000.);
#217=VECTOR('',#395,1000.);
#218=VECTOR('',#404,1000.);
#219=VECTOR('',#405,1000.);
#220=VECTOR('',#406,1000.);
#221=VECTOR('',#407,1000.);
#222=VECTOR('',#410,1000.);
#223=VECTOR('',#411,1000.);
#224=VECTOR('',#412,1000.);
#225=VECTOR('',#415,1000.);
#226=VECTOR('',#416,1000.);
#227=VECTOR('',#417,1000.);
#228=VECTOR('',#420,1000.);
#229=VECTOR('',#421,1000.);
#230=VECTOR('',#430,1000.);
#231=VECTOR('',#431,1000.);
#232=VECTOR('',#432,1000.);
#233=VECTOR('',#433,1000.);
#234=VECTOR('',#436,1000.);
#235=VECTOR('',#437,1000.);
#236=VECTOR('',#438,1000.);
#237=VECTOR('',#441,1000.);
#238=VECTOR('',#442,1000.);
#239=VECTOR('',#443,1000.);
#240=VECTOR('',#446,1000.);
#241=VECTOR('',#447,1000.);
#242=EDGE_LOOP('',(#38,#39,#40,#41));
#243=EDGE_LOOP('',(#42,#43,#44,#45));
#244=EDGE_LOOP('',(#46,#47,#48,#49));
#245=EDGE_LOOP('',(#50,#51,#52,#53));
#246=EDGE_LOOP('',(#54,#55,#56,#57));
#247=EDGE_LOOP('',(#58,#59,#60,#61));
#248=EDGE_LOOP('',(#62,#63,#64,#65));
#249=EDGE_LOOP('',(#66,#67,#68,#69));
#250=EDGE_LOOP('',(#70,#71,#72,#73));
#251=EDGE_LOOP('',(#74,#75,#76,#77));
#252=EDGE_LOOP('',(#78,#79,#80,#81));
#253=EDGE_LOOP('',(#82,#83,#84,#85));
#254=EDGE_LOOP('',(#86,#87,#88,#89));
#255=EDGE_LOOP('',(#90,#91,#92,#93));
#256=EDGE_LOOP('',(#94,#95,#96,#97));
#257=EDGE_LOOP('',(#98,#99,#100,#101));
#258=EDGE_LOOP('',(#102,#103,#104,#105));
#259=EDGE_LOOP('',(#106,#107,#108,#109));
#260=FACE_BOUND('',#242,.T.);
#261=FACE_BOUND('',#243,.T.);
#262=FACE_BOUND('',#244,.T.);
#263=FACE_BOUND('',#245,.T.);
#264=FACE_BOUND('',#246,.T.);
#265=FACE_BOUND('',#247,.T.);
#266=FACE_BOUND('',#248,.T.);
#267=FACE_BOUND('',#249,.T.);
#268=FACE_BOUND('',#250,.T.);
#269=FACE_BOUND('',#251,.T.);
#270=FACE_BOUND('',#252,.T.);
#271=FACE_BOUND('',#253,.T.);
#272=FACE_BOUND('',#254,.T.);
#273=FACE_BOUND('',#255,.T.);
#274=FACE_BOUND('',#256,.T.);
#275=FACE_BOUND('',#257,.T.);
#276=FACE_BOUND('',#258,.T.);
#277=FACE_BOUND('',#259,.T.);
#278=PLANE('',#353);
#279=PLANE('',#354);
#280=PLANE('',#355);
#281=PLANE('',#356);
#282=PLANE('',#357);
#283=PLANE('',#358);
#284=PLANE('',#360);
#285=PLANE('',#361);
#286=PLANE('',#362);
#287=PLANE('',#363);
#288=PLANE('',#364);
#289=PLANE('',#365);
#290=PLANE('',#367);
#291=PLANE('',#368);
#292=PLANE('',#369);
#293=PLANE('',#370);
#294=PLANE('',#371);
#295=PLANE('',#372);
#296=ADVANCED_FACE('',(#260),#278,.F.);
#297=ADVANCED_FACE('',(#261),#279,.F.);
#298=ADVANCED_FACE('',(#262),#280,.F.);
#299=ADVANCED_FACE('',(#263),#281,.F.);
#300=ADVANCED_FACE('',(#264),#282,.T.);
#301=ADVANCED_FACE('',(#265),#283,.F.);
#302=ADVANCED_FACE('',(#266),#284,.F.);
#303=ADVANCED_FACE('',(#267),#285,.F.);
#304=ADVANCED_FACE('',(#268),#286,.F.);
#305=ADVANCED_FACE('',(#269),#287,.F.);
#306=ADVANCED_FACE('',(#270),#288,.T.);
#307=ADVANCED_FACE('',(#271),#289,.F.);
#308=ADVANCED_FACE('',(#272),#290,.F.);
#309=ADVANCED_FACE('',(#273),#291,.F.);
#310=ADVANCED_FACE('',(#274),#292,.F.);
#311=ADVANCED_FACE('',(#275),#293,.F.);
#312=ADVANCED_FACE('',(#276),#294,.T.);
#313=ADVANCED_FACE('',(#277),#295,.F.);
#314=CLOSED_SHELL('',(#296,#297,#298,#299,#300,#301));
#315=CLOSED_SHELL('',(#302,#303,#304,#305,#306,#307));
#316=CLOSED_SHELL('',(#308,#309,#310,#311,#312,#313));
#317=STYLED_ITEM('',(#320),#341);
#318=STYLED_ITEM('',(#321),#342);
#319=STYLED_ITEM('',(#322),#343);
#320=PRESENTATION_STYLE_ASSIGNMENT((#323));
#321=PRESENTATION_STYLE_ASSIGNMENT((#324));
#322=PRESENTATION_STYLE_ASSIGNMENT((#325));
#323=SURFACE_STYLE_USAGE(.BOTH.,#326);
#324=SURFACE_STYLE_USAGE(.BOTH.,#327);
#325=SURFACE_STYLE_USAGE(.BOTH.,#328);
#326=SURFACE_SIDE_STYLE('',(#331,#329));
#327=SURFACE_SIDE_STYLE('',(#332));
#328=SURFACE_SIDE_STYLE('',(#333));
#329=SURFACE_STYLE_RENDERING_WITH_PROPERTIES(.CONSTANT_SHADING.,#340,(#330));
#330=SURFACE_STYLE_TRANSPARENT(0.699999988079071);
#331=SURFACE_STYLE_FILL_AREA(#334);
#332=SURFACE_STYLE_FILL_AREA(#335);
#333=SURFACE_STYLE_FILL_AREA(#336);
#334=FILL_AREA_STYLE('',(#337));
#335=FILL_AREA_STYLE('',(#338));
#336=FILL_AREA_STYLE('',(#339));
#337=FILL_AREA_STYLE_COLOUR('',#340);
#338=FILL_AREA_STYLE_COLOUR('',#18);
#339=FILL_AREA_STYLE_COLOUR('',#19);
#340=DRAUGHTING_PRE_DEFINED_COLOUR('white');
#341=MANIFOLD_SOLID_BREP('',#314);
#342=MANIFOLD_SOLID_BREP('',#315);
#343=MANIFOLD_SOLID_BREP('',#316);
#344=SHAPE_DEFINITION_REPRESENTATION(#549,#348);
#345=SHAPE_DEFINITION_REPRESENTATION(#548,#349);
#346=SHAPE_DEFINITION_REPRESENTATION(#551,#350);
#347=SHAPE_DEFINITION_REPRESENTATION(#553,#351);
#348=SHAPE_REPRESENTATION('Adhesive tape',(#352),#538);
#349=SHAPE_REPRESENTATION('345005',(#352,#359,#366,#373),#537);
#350=SHAPE_REPRESENTATION('PET film',(#352),#539);
#351=SHAPE_REPRESENTATION('WE-FAS',(#352),#540);
#352=AXIS2_PLACEMENT_3D('',#454,#374,#375);
#353=AXIS2_PLACEMENT_3D('',#455,#376,#377);
#354=AXIS2_PLACEMENT_3D('',#464,#382,#383);
#355=AXIS2_PLACEMENT_3D('',#470,#387,#388);
#356=AXIS2_PLACEMENT_3D('',#476,#392,#393);
#357=AXIS2_PLACEMENT_3D('',#479,#396,#397);
#358=AXIS2_PLACEMENT_3D('',#480,#398,#399);
#359=AXIS2_PLACEMENT_3D('',#481,#400,#401);
#360=AXIS2_PLACEMENT_3D('',#482,#402,#403);
#361=AXIS2_PLACEMENT_3D('',#491,#408,#409);
#362=AXIS2_PLACEMENT_3D('',#497,#413,#414);
#363=AXIS2_PLACEMENT_3D('',#503,#418,#419);
#364=AXIS2_PLACEMENT_3D('',#506,#422,#423);
#365=AXIS2_PLACEMENT_3D('',#507,#424,#425);
#366=AXIS2_PLACEMENT_3D('',#508,#426,#427);
#367=AXIS2_PLACEMENT_3D('',#509,#428,#429);
#368=AXIS2_PLACEMENT_3D('',#518,#434,#435);
#369=AXIS2_PLACEMENT_3D('',#524,#439,#440);
#370=AXIS2_PLACEMENT_3D('',#530,#444,#445);
#371=AXIS2_PLACEMENT_3D('',#533,#448,#449);
#372=AXIS2_PLACEMENT_3D('',#534,#450,#451);
#373=AXIS2_PLACEMENT_3D('',#535,#452,#453);
#374=DIRECTION('',(0.,0.,1.));
#375=DIRECTION('',(1.,0.,0.));
#376=DIRECTION('',(1.,0.,0.));
#377=DIRECTION('',(0.,0.,-1.));
#378=DIRECTION('',(0.,-1.,0.));
#379=DIRECTION('',(0.,0.,-1.));
#380=DIRECTION('',(0.,-1.,0.));
#381=DIRECTION('',(0.,0.,-1.));
#382=DIRECTION('',(-9.34531165509391E-17,1.,0.));
#383=DIRECTION('',(-1.,-9.34531165509391E-17,0.));
#384=DIRECTION('',(1.,9.34531165509391E-17,0.));
#385=DIRECTION('',(0.,0.,-1.));
#386=DIRECTION('',(1.,9.34531165509391E-17,0.));
#387=DIRECTION('',(-1.,0.,0.));
#388=DIRECTION('',(0.,0.,1.));
#389=DIRECTION('',(0.,1.,0.));
#390=DIRECTION('',(0.,0.,-1.));
#391=DIRECTION('',(0.,1.,0.));
#392=DIRECTION('',(-9.34531165509391E-17,-1.,0.));
#393=DIRECTION('',(1.,-9.34531165509391E-17,0.));
#394=DIRECTION('',(-1.,9.34531165509391E-17,0.));
#395=DIRECTION('',(-1.,9.34531165509391E-17,0.));
#396=DIRECTION('',(0.,0.,1.));
#397=DIRECTION('',(1.,0.,0.));
#398=DIRECTION('',(0.,0.,1.));
#399=DIRECTION('',(1.,0.,0.));
#400=DIRECTION('',(0.,0.,1.));
#401=DIRECTION('',(1.,0.,0.));
#402=DIRECTION('',(1.,0.,0.));
#403=DIRECTION('',(0.,0.,-1.));
#404=DIRECTION('',(0.,-1.,0.));
#405=DIRECTION('',(0.,0.,-1.));
#406=DIRECTION('',(0.,-1.,0.));
#407=DIRECTION('',(0.,0.,-1.));
#408=DIRECTION('',(-9.34531165509391E-17,1.,0.));
#409=DIRECTION('',(-1.,-9.34531165509391E-17,0.));
#410=DIRECTION('',(1.,9.34531165509391E-17,0.));
#411=DIRECTION('',(0.,0.,-1.));
#412=DIRECTION('',(1.,9.34531165509391E-17,0.));
#413=DIRECTION('',(-1.,0.,0.));
#414=DIRECTION('',(0.,0.,1.));
#415=DIRECTION('',(0.,1.,0.));
#416=DIRECTION('',(0.,0.,-1.));
#417=DIRECTION('',(0.,1.,0.));
#418=DIRECTION('',(-9.34531165509391E-17,-1.,0.));
#419=DIRECTION('',(1.,-9.34531165509391E-17,0.));
#420=DIRECTION('',(-1.,9.34531165509391E-17,0.));
#421=DIRECTION('',(-1.,9.34531165509391E-17,0.));
#422=DIRECTION('',(0.,0.,1.));
#423=DIRECTION('',(1.,0.,0.));
#424=DIRECTION('',(0.,0.,1.));
#425=DIRECTION('',(1.,0.,0.));
#426=DIRECTION('',(3.12575613572659E-16,-4.64237253756045E-17,1.));
#427=DIRECTION('',(1.,2.77555756156289E-17,-3.12575613572659E-16));
#428=DIRECTION('',(1.,0.,0.));
#429=DIRECTION('',(0.,0.,-1.));
#430=DIRECTION('',(0.,-1.,0.));
#431=DIRECTION('',(0.,0.,-1.));
#432=DIRECTION('',(0.,-1.,0.));
#433=DIRECTION('',(0.,0.,-1.));
#434=DIRECTION('',(-9.34531165509391E-17,1.,0.));
#435=DIRECTION('',(-1.,-9.34531165509391E-17,0.));
#436=DIRECTION('',(1.,9.34531165509391E-17,0.));
#437=DIRECTION('',(0.,0.,-1.));
#438=DIRECTION('',(1.,9.34531165509391E-17,0.));
#439=DIRECTION('',(-1.,0.,0.));
#440=DIRECTION('',(0.,0.,1.));
#441=DIRECTION('',(0.,1.,0.));
#442=DIRECTION('',(0.,0.,-1.));
#443=DIRECTION('',(0.,1.,0.));
#444=DIRECTION('',(-9.34531165509391E-17,-1.,0.));
#445=DIRECTION('',(1.,-9.34531165509391E-17,0.));
#446=DIRECTION('',(-1.,9.34531165509391E-17,0.));
#447=DIRECTION('',(-1.,9.34531165509391E-17,0.));
#448=DIRECTION('',(0.,0.,1.));
#449=DIRECTION('',(1.,0.,0.));
#450=DIRECTION('',(0.,0.,1.));
#451=DIRECTION('',(1.,0.,0.));
#452=DIRECTION('',(-4.56311125509293E-16,1.35950548117292E-16,1.));
#453=DIRECTION('',(1.,-1.12757025938492E-15,4.56311125509293E-16));
#454=CARTESIAN_POINT('',(0.,0.,0.));
#455=CARTESIAN_POINT('',(-148.5,105.,0.1));
#456=CARTESIAN_POINT('',(-148.5,105.,0.));
#457=CARTESIAN_POINT('',(-148.5,105.,0.));
#458=CARTESIAN_POINT('',(-148.5,-105.,0.));
#459=CARTESIAN_POINT('',(-148.5,-105.,0.1));
#460=CARTESIAN_POINT('',(-148.5,-105.,0.1));
#461=CARTESIAN_POINT('',(-148.5,105.,0.1));
#462=CARTESIAN_POINT('',(-148.5,105.,0.1));
#463=CARTESIAN_POINT('',(-148.5,105.,0.1));
#464=CARTESIAN_POINT('',(-148.5,-105.,0.1));
#465=CARTESIAN_POINT('',(-148.5,-105.,0.));
#466=CARTESIAN_POINT('',(148.5,-105.,0.));
#467=CARTESIAN_POINT('',(148.5,-105.,0.1));
#468=CARTESIAN_POINT('',(148.5,-105.,0.1));
#469=CARTESIAN_POINT('',(-148.5,-105.,0.1));
#470=CARTESIAN_POINT('',(148.5,-105.,0.1));
#471=CARTESIAN_POINT('',(148.5,-105.,0.));
#472=CARTESIAN_POINT('',(148.5,105.,0.));
#473=CARTESIAN_POINT('',(148.5,105.,0.1));
#474=CARTESIAN_POINT('',(148.5,105.,0.1));
#475=CARTESIAN_POINT('',(148.5,-105.,0.1));
#476=CARTESIAN_POINT('',(148.5,105.,0.1));
#477=CARTESIAN_POINT('',(148.5,105.,0.));
#478=CARTESIAN_POINT('',(148.5,105.,0.1));
#479=CARTESIAN_POINT('',(-148.5,-105.,0.1));
#480=CARTESIAN_POINT('',(-148.5,-105.,0.));
#481=CARTESIAN_POINT('',(0.,0.,-1.41889913129147));
#482=CARTESIAN_POINT('',(-148.5,105.,0.08));
#483=CARTESIAN_POINT('',(-148.5,105.,0.));
#484=CARTESIAN_POINT('',(-148.5,105.,0.));
#485=CARTESIAN_POINT('',(-148.5,-105.,0.));
#486=CARTESIAN_POINT('',(-148.5,-105.,0.08));
#487=CARTESIAN_POINT('',(-148.5,-105.,0.08));
#488=CARTESIAN_POINT('',(-148.5,105.,0.08));
#489=CARTESIAN_POINT('',(-148.5,105.,0.08));
#490=CARTESIAN_POINT('',(-148.5,105.,0.08));
#491=CARTESIAN_POINT('',(-148.5,-105.,0.08));
#492=CARTESIAN_POINT('',(-148.5,-105.,0.));
#493=CARTESIAN_POINT('',(148.5,-105.,0.));
#494=CARTESIAN_POINT('',(148.5,-105.,0.08));
#495=CARTESIAN_POINT('',(148.5,-105.,0.08));
#496=CARTESIAN_POINT('',(-148.5,-105.,0.08));
#497=CARTESIAN_POINT('',(148.5,-105.,0.08));
#498=CARTESIAN_POINT('',(148.5,-105.,0.));
#499=CARTESIAN_POINT('',(148.5,105.,0.));
#500=CARTESIAN_POINT('',(148.5,105.,0.08));
#501=CARTESIAN_POINT('',(148.5,105.,0.08));
#502=CARTESIAN_POINT('',(148.5,-105.,0.08));
#503=CARTESIAN_POINT('',(148.5,105.,0.08));
#504=CARTESIAN_POINT('',(148.5,105.,0.));
#505=CARTESIAN_POINT('',(148.5,105.,0.08));
#506=CARTESIAN_POINT('',(-148.5,-105.,0.08));
#507=CARTESIAN_POINT('',(-148.5,-105.,0.));
#508=CARTESIAN_POINT('',(-9.72439550817499E-15,6.07153216591882E-15,-0.818899131291521));
#509=CARTESIAN_POINT('',(-148.5,105.,0.5));
#510=CARTESIAN_POINT('',(-148.5,105.,0.));
#511=CARTESIAN_POINT('',(-148.5,105.,0.));
#512=CARTESIAN_POINT('',(-148.5,-105.,0.));
#513=CARTESIAN_POINT('',(-148.5,-105.,0.5));
#514=CARTESIAN_POINT('',(-148.5,-105.,0.5));
#515=CARTESIAN_POINT('',(-148.5,105.,0.5));
#516=CARTESIAN_POINT('',(-148.5,105.,0.5));
#517=CARTESIAN_POINT('',(-148.5,105.,0.5));
#518=CARTESIAN_POINT('',(-148.5,-105.,0.5));
#519=CARTESIAN_POINT('',(-148.5,-105.,0.));
#520=CARTESIAN_POINT('',(148.5,-105.,0.));
#521=CARTESIAN_POINT('',(148.5,-105.,0.5));
#522=CARTESIAN_POINT('',(148.5,-105.,0.5));
#523=CARTESIAN_POINT('',(-148.5,-105.,0.5));
#524=CARTESIAN_POINT('',(148.5,-105.,0.5));
#525=CARTESIAN_POINT('',(148.5,-105.,0.));
#526=CARTESIAN_POINT('',(148.5,105.,0.));
#527=CARTESIAN_POINT('',(148.5,105.,0.5));
#528=CARTESIAN_POINT('',(148.5,105.,0.5));
#529=CARTESIAN_POINT('',(148.5,-105.,0.5));
#530=CARTESIAN_POINT('',(148.5,105.,0.5));
#531=CARTESIAN_POINT('',(148.5,105.,0.));
#532=CARTESIAN_POINT('',(148.5,105.,0.5));
#533=CARTESIAN_POINT('',(-148.5,-105.,0.5));
#534=CARTESIAN_POINT('',(-148.5,-105.,0.));
#535=CARTESIAN_POINT('',(-3.62913077288449E-13,-4.52767837377579E-13,-1.31889913129134));
#536=MECHANICAL_DESIGN_GEOMETRIC_PRESENTATION_REPRESENTATION('',(#317,#318,
#319),#537);
#537=(
GEOMETRIC_REPRESENTATION_CONTEXT(3)
GLOBAL_UNCERTAINTY_ASSIGNED_CONTEXT((#541))
GLOBAL_UNIT_ASSIGNED_CONTEXT((#547,#546,#545))
REPRESENTATION_CONTEXT('345005','TOP_LEVEL_ASSEMBLY_PART')
);
#538=(
GEOMETRIC_REPRESENTATION_CONTEXT(3)
GLOBAL_UNCERTAINTY_ASSIGNED_CONTEXT((#542))
GLOBAL_UNIT_ASSIGNED_CONTEXT((#547,#546,#545))
REPRESENTATION_CONTEXT('Adhesive tape','COMPONENT_PART')
);
#539=(
GEOMETRIC_REPRESENTATION_CONTEXT(3)
GLOBAL_UNCERTAINTY_ASSIGNED_CONTEXT((#543))
GLOBAL_UNIT_ASSIGNED_CONTEXT((#547,#546,#545))
REPRESENTATION_CONTEXT('PET film','COMPONENT_PART')
);
#540=(
GEOMETRIC_REPRESENTATION_CONTEXT(3)
GLOBAL_UNCERTAINTY_ASSIGNED_CONTEXT((#544))
GLOBAL_UNIT_ASSIGNED_CONTEXT((#547,#546,#545))
REPRESENTATION_CONTEXT('WE-FAS','COMPONENT_PART')
);
#541=UNCERTAINTY_MEASURE_WITH_UNIT(LENGTH_MEASURE(0.005),#547,
'DISTANCE_ACCURACY_VALUE','Maximum Tolerance applied to model');
#542=UNCERTAINTY_MEASURE_WITH_UNIT(LENGTH_MEASURE(0.005),#547,
'DISTANCE_ACCURACY_VALUE','Maximum Tolerance applied to model');
#543=UNCERTAINTY_MEASURE_WITH_UNIT(LENGTH_MEASURE(0.005),#547,
'DISTANCE_ACCURACY_VALUE','Maximum Tolerance applied to model');
#544=UNCERTAINTY_MEASURE_WITH_UNIT(LENGTH_MEASURE(0.005),#547,
'DISTANCE_ACCURACY_VALUE','Maximum Tolerance applied to model');
#545=(
NAMED_UNIT(*)
SI_UNIT($,.STERADIAN.)
SOLID_ANGLE_UNIT()
);
#546=(
NAMED_UNIT(*)
PLANE_ANGLE_UNIT()
SI_UNIT($,.RADIAN.)
);
#547=(
LENGTH_UNIT()
NAMED_UNIT(*)
SI_UNIT(.MILLI.,.METRE.)
);
#548=PRODUCT_DEFINITION_SHAPE('','',#555);
#549=PRODUCT_DEFINITION_SHAPE('','',#556);
#550=PRODUCT_DEFINITION_SHAPE(' ','NAUO PRDDFN',#23);
#551=PRODUCT_DEFINITION_SHAPE('','',#557);
#552=PRODUCT_DEFINITION_SHAPE(' ','NAUO PRDDFN',#24);
#553=PRODUCT_DEFINITION_SHAPE('','',#558);
#554=PRODUCT_DEFINITION_SHAPE(' ','NAUO PRDDFN',#25);
#555=PRODUCT_DEFINITION('','',#563,#559);
#556=PRODUCT_DEFINITION('','',#564,#560);
#557=PRODUCT_DEFINITION('','',#565,#561);
#558=PRODUCT_DEFINITION('','',#566,#562);
#559=PRODUCT_DEFINITION_CONTEXT('',#584,'design');
#560=PRODUCT_DEFINITION_CONTEXT('',#584,'design');
#561=PRODUCT_DEFINITION_CONTEXT('',#584,'design');
#562=PRODUCT_DEFINITION_CONTEXT('',#584,'design');
#563=PRODUCT_DEFINITION_FORMATION_WITH_SPECIFIED_SOURCE('','',#571,
 .NOT_KNOWN.);
#564=PRODUCT_DEFINITION_FORMATION_WITH_SPECIFIED_SOURCE('','',#572,
 .NOT_KNOWN.);
#565=PRODUCT_DEFINITION_FORMATION_WITH_SPECIFIED_SOURCE('','',#573,
 .NOT_KNOWN.);
#566=PRODUCT_DEFINITION_FORMATION_WITH_SPECIFIED_SOURCE('','',#574,
 .NOT_KNOWN.);
#567=PRODUCT_RELATED_PRODUCT_CATEGORY('','',(#571));
#568=PRODUCT_RELATED_PRODUCT_CATEGORY('','',(#572));
#569=PRODUCT_RELATED_PRODUCT_CATEGORY('','',(#573));
#570=PRODUCT_RELATED_PRODUCT_CATEGORY('','',(#574));
#571=PRODUCT('345005','345005','345005',(#579));
#572=PRODUCT('Adhesive tape','Adhesive tape','Adhesive tape',(#580));
#573=PRODUCT('PET film','PET film','PET film',(#581));
#574=PRODUCT('WE-FAS','WE-FAS','WE-FAS',(#582));
#575=PRODUCT_CATEGORY('','');
#576=PRODUCT_CATEGORY('','');
#577=PRODUCT_CATEGORY('','');
#578=PRODUCT_CATEGORY('','');
#579=PRODUCT_CONTEXT('',#584,'mechanical');
#580=PRODUCT_CONTEXT('',#584,'mechanical');
#581=PRODUCT_CONTEXT('',#584,'mechanical');
#582=PRODUCT_CONTEXT('',#584,'mechanical');
#583=APPLICATION_PROTOCOL_DEFINITION('international standard',
'automotive_design',2010,#584);
#584=APPLICATION_CONTEXT(
'core data for automotive mechanical design processes');
ENDSEC;
END-ISO-10303-21;
