ISO-10303-21;
HEADER;
/* Generated by software containing ST-Developer
 * from STEP Tools, Inc. (www.steptools.com) 
 */
/* OPTION: strings as raw bytes, not using required /X/ escapes */

FILE_DESCRIPTION(
/* description */ ('Unknown'),
/* implementation_level */ '2;1');

FILE_NAME(
/* name */ 'IndMAIA_2512HT',
/* time_stamp */ '2024-06-19T07:33:30+02:00',
/* author */ ('Unknown'),
/* organization */ ('Unknown'),
/* preprocessor_version */ 'ST-DEVELOPER v19.4',
/* originating_system */ 'Solid Edge',
/* authorisation */ 'Unknown');

FILE_SCHEMA (('AUTOMOTIVE_DESIGN {1 0 10303 214 3 1 1}'));
ENDSEC;

DATA;
#10=PROPERTY_DEFINITION_REPRESENTATION(#14,#12);
#11=PROPERTY_DEFINITION_REPRESENTATION(#15,#13);
#12=REPRESENTATION('',(#16),#505);
#13=REPRESENTATION('',(#17),#505);
#14=PROPERTY_DEFINITION('pmi validation property','',#514);
#15=PROPERTY_DEFINITION('pmi validation property','',#514);
#16=VALUE_REPRESENTATION_ITEM('number of annotations',COUNT_MEASURE(0.));
#17=VALUE_REPRESENTATION_ITEM('number of views',COUNT_MEASURE(0.));
#18=CONTEXT_DEPENDENT_SHAPE_REPRESENTATION(#24,#516);
#19=CONTEXT_DEPENDENT_SHAPE_REPRESENTATION(#25,#518);
#20=CONTEXT_DEPENDENT_SHAPE_REPRESENTATION(#26,#519);
#21=NEXT_ASSEMBLY_USAGE_OCCURRENCE('body_SSMC_25xx','body_SSMC_25xx',
'body_SSMC_25xx',#520,#521,'');
#22=NEXT_ASSEMBLY_USAGE_OCCURRENCE('land_pattern_SSMC_25xx',
'land_pattern_SSMC_25xx','land_pattern_SSMC_25xx',#520,#522,'');
#23=NEXT_ASSEMBLY_USAGE_OCCURRENCE('land_pattern_SSMC_25xx',
'land_pattern_SSMC_25xx','land_pattern_SSMC_25xx',#520,#522,'');
#24=(
REPRESENTATION_RELATIONSHIP(' ',' ',#325,#326)
REPRESENTATION_RELATIONSHIP_WITH_TRANSFORMATION(#27)
SHAPE_REPRESENTATION_RELATIONSHIP()
);
#25=(
REPRESENTATION_RELATIONSHIP(' ',' ',#327,#326)
REPRESENTATION_RELATIONSHIP_WITH_TRANSFORMATION(#28)
SHAPE_REPRESENTATION_RELATIONSHIP()
);
#26=(
REPRESENTATION_RELATIONSHIP(' ',' ',#327,#326)
REPRESENTATION_RELATIONSHIP_WITH_TRANSFORMATION(#29)
SHAPE_REPRESENTATION_RELATIONSHIP()
);
#27=ITEM_DEFINED_TRANSFORMATION(' ',' ',#328,#339);
#28=ITEM_DEFINED_TRANSFORMATION(' ',' ',#328,#346);
#29=ITEM_DEFINED_TRANSFORMATION(' ',' ',#328,#347);
#30=SHAPE_REPRESENTATION_RELATIONSHIP('','',#325,#32);
#31=SHAPE_REPRESENTATION_RELATIONSHIP('','',#327,#33);
#32=ADVANCED_BREP_SHAPE_REPRESENTATION('',(#320),#506);
#33=ADVANCED_BREP_SHAPE_REPRESENTATION('',(#321),#507);
#34=ORIENTED_EDGE('',*,*,#106,.F.);
#35=ORIENTED_EDGE('',*,*,#107,.T.);
#36=ORIENTED_EDGE('',*,*,#108,.T.);
#37=ORIENTED_EDGE('',*,*,#109,.F.);
#38=ORIENTED_EDGE('',*,*,#110,.F.);
#39=ORIENTED_EDGE('',*,*,#111,.T.);
#40=ORIENTED_EDGE('',*,*,#112,.F.);
#41=ORIENTED_EDGE('',*,*,#113,.F.);
#42=ORIENTED_EDGE('',*,*,#114,.T.);
#43=ORIENTED_EDGE('',*,*,#115,.T.);
#44=ORIENTED_EDGE('',*,*,#116,.T.);
#45=ORIENTED_EDGE('',*,*,#107,.F.);
#46=ORIENTED_EDGE('',*,*,#117,.F.);
#47=ORIENTED_EDGE('',*,*,#118,.F.);
#48=ORIENTED_EDGE('',*,*,#119,.F.);
#49=ORIENTED_EDGE('',*,*,#109,.T.);
#50=ORIENTED_EDGE('',*,*,#120,.T.);
#51=ORIENTED_EDGE('',*,*,#121,.F.);
#52=ORIENTED_EDGE('',*,*,#122,.T.);
#53=ORIENTED_EDGE('',*,*,#123,.T.);
#54=ORIENTED_EDGE('',*,*,#124,.F.);
#55=ORIENTED_EDGE('',*,*,#117,.T.);
#56=ORIENTED_EDGE('',*,*,#125,.T.);
#57=ORIENTED_EDGE('',*,*,#112,.T.);
#58=ORIENTED_EDGE('',*,*,#115,.F.);
#59=ORIENTED_EDGE('',*,*,#126,.T.);
#60=ORIENTED_EDGE('',*,*,#121,.T.);
#61=ORIENTED_EDGE('',*,*,#127,.T.);
#62=ORIENTED_EDGE('',*,*,#127,.F.);
#63=ORIENTED_EDGE('',*,*,#120,.F.);
#64=ORIENTED_EDGE('',*,*,#108,.F.);
#65=ORIENTED_EDGE('',*,*,#116,.F.);
#66=ORIENTED_EDGE('',*,*,#125,.F.);
#67=ORIENTED_EDGE('',*,*,#123,.F.);
#68=ORIENTED_EDGE('',*,*,#128,.T.);
#69=ORIENTED_EDGE('',*,*,#113,.T.);
#70=ORIENTED_EDGE('',*,*,#114,.F.);
#71=ORIENTED_EDGE('',*,*,#128,.F.);
#72=ORIENTED_EDGE('',*,*,#122,.F.);
#73=ORIENTED_EDGE('',*,*,#126,.F.);
#74=ORIENTED_EDGE('',*,*,#124,.T.);
#75=ORIENTED_EDGE('',*,*,#111,.F.);
#76=ORIENTED_EDGE('',*,*,#129,.F.);
#77=ORIENTED_EDGE('',*,*,#118,.T.);
#78=ORIENTED_EDGE('',*,*,#110,.T.);
#79=ORIENTED_EDGE('',*,*,#106,.T.);
#80=ORIENTED_EDGE('',*,*,#119,.T.);
#81=ORIENTED_EDGE('',*,*,#129,.T.);
#82=ORIENTED_EDGE('',*,*,#130,.F.);
#83=ORIENTED_EDGE('',*,*,#131,.F.);
#84=ORIENTED_EDGE('',*,*,#132,.T.);
#85=ORIENTED_EDGE('',*,*,#133,.T.);
#86=ORIENTED_EDGE('',*,*,#134,.F.);
#87=ORIENTED_EDGE('',*,*,#133,.F.);
#88=ORIENTED_EDGE('',*,*,#135,.T.);
#89=ORIENTED_EDGE('',*,*,#136,.T.);
#90=ORIENTED_EDGE('',*,*,#137,.F.);
#91=ORIENTED_EDGE('',*,*,#136,.F.);
#92=ORIENTED_EDGE('',*,*,#138,.T.);
#93=ORIENTED_EDGE('',*,*,#139,.T.);
#94=ORIENTED_EDGE('',*,*,#140,.F.);
#95=ORIENTED_EDGE('',*,*,#139,.F.);
#96=ORIENTED_EDGE('',*,*,#141,.T.);
#97=ORIENTED_EDGE('',*,*,#131,.T.);
#98=ORIENTED_EDGE('',*,*,#132,.F.);
#99=ORIENTED_EDGE('',*,*,#141,.F.);
#100=ORIENTED_EDGE('',*,*,#138,.F.);
#101=ORIENTED_EDGE('',*,*,#135,.F.);
#102=ORIENTED_EDGE('',*,*,#130,.T.);
#103=ORIENTED_EDGE('',*,*,#134,.T.);
#104=ORIENTED_EDGE('',*,*,#137,.T.);
#105=ORIENTED_EDGE('',*,*,#140,.T.);
#106=EDGE_CURVE('',#142,#143,#166,.T.);
#107=EDGE_CURVE('',#142,#144,#167,.T.);
#108=EDGE_CURVE('',#144,#145,#168,.T.);
#109=EDGE_CURVE('',#143,#145,#169,.T.);
#110=EDGE_CURVE('',#146,#142,#170,.T.);
#111=EDGE_CURVE('',#146,#147,#171,.T.);
#112=EDGE_CURVE('',#148,#147,#172,.T.);
#113=EDGE_CURVE('',#149,#148,#173,.T.);
#114=EDGE_CURVE('',#149,#150,#174,.T.);
#115=EDGE_CURVE('',#150,#151,#175,.T.);
#116=EDGE_CURVE('',#151,#144,#176,.T.);
#117=EDGE_CURVE('',#152,#153,#177,.T.);
#118=EDGE_CURVE('',#154,#152,#178,.T.);
#119=EDGE_CURVE('',#143,#154,#179,.T.);
#120=EDGE_CURVE('',#145,#155,#180,.T.);
#121=EDGE_CURVE('',#156,#155,#181,.T.);
#122=EDGE_CURVE('',#156,#157,#182,.T.);
#123=EDGE_CURVE('',#157,#153,#183,.T.);
#124=EDGE_CURVE('',#152,#147,#184,.T.);
#125=EDGE_CURVE('',#153,#148,#185,.T.);
#126=EDGE_CURVE('',#150,#156,#186,.T.);
#127=EDGE_CURVE('',#155,#151,#187,.T.);
#128=EDGE_CURVE('',#157,#149,#188,.T.);
#129=EDGE_CURVE('',#154,#146,#189,.T.);
#130=EDGE_CURVE('',#158,#159,#190,.T.);
#131=EDGE_CURVE('',#160,#158,#191,.T.);
#132=EDGE_CURVE('',#160,#161,#192,.T.);
#133=EDGE_CURVE('',#161,#159,#193,.T.);
#134=EDGE_CURVE('',#159,#162,#194,.T.);
#135=EDGE_CURVE('',#161,#163,#195,.T.);
#136=EDGE_CURVE('',#163,#162,#196,.T.);
#137=EDGE_CURVE('',#162,#164,#197,.T.);
#138=EDGE_CURVE('',#163,#165,#198,.T.);
#139=EDGE_CURVE('',#165,#164,#199,.T.);
#140=EDGE_CURVE('',#164,#158,#200,.T.);
#141=EDGE_CURVE('',#165,#160,#201,.T.);
#142=VERTEX_POINT('',#427);
#143=VERTEX_POINT('',#428);
#144=VERTEX_POINT('',#430);
#145=VERTEX_POINT('',#432);
#146=VERTEX_POINT('',#436);
#147=VERTEX_POINT('',#438);
#148=VERTEX_POINT('',#440);
#149=VERTEX_POINT('',#442);
#150=VERTEX_POINT('',#444);
#151=VERTEX_POINT('',#446);
#152=VERTEX_POINT('',#450);
#153=VERTEX_POINT('',#451);
#154=VERTEX_POINT('',#453);
#155=VERTEX_POINT('',#456);
#156=VERTEX_POINT('',#458);
#157=VERTEX_POINT('',#460);
#158=VERTEX_POINT('',#478);
#159=VERTEX_POINT('',#479);
#160=VERTEX_POINT('',#481);
#161=VERTEX_POINT('',#483);
#162=VERTEX_POINT('',#487);
#163=VERTEX_POINT('',#489);
#164=VERTEX_POINT('',#493);
#165=VERTEX_POINT('',#495);
#166=LINE('',#426,#202);
#167=LINE('',#429,#203);
#168=LINE('',#431,#204);
#169=LINE('',#433,#205);
#170=LINE('',#435,#206);
#171=LINE('',#437,#207);
#172=LINE('',#439,#208);
#173=LINE('',#441,#209);
#174=LINE('',#443,#210);
#175=LINE('',#445,#211);
#176=LINE('',#447,#212);
#177=LINE('',#449,#213);
#178=LINE('',#452,#214);
#179=LINE('',#454,#215);
#180=LINE('',#455,#216);
#181=LINE('',#457,#217);
#182=LINE('',#459,#218);
#183=LINE('',#461,#219);
#184=LINE('',#463,#220);
#185=LINE('',#464,#221);
#186=LINE('',#466,#222);
#187=LINE('',#467,#223);
#188=LINE('',#470,#224);
#189=LINE('',#473,#225);
#190=LINE('',#477,#226);
#191=LINE('',#480,#227);
#192=LINE('',#482,#228);
#193=LINE('',#484,#229);
#194=LINE('',#486,#230);
#195=LINE('',#488,#231);
#196=LINE('',#490,#232);
#197=LINE('',#492,#233);
#198=LINE('',#494,#234);
#199=LINE('',#496,#235);
#200=LINE('',#498,#236);
#201=LINE('',#499,#237);
#202=VECTOR('',#352,1000.);
#203=VECTOR('',#353,1000.);
#204=VECTOR('',#354,1000.);
#205=VECTOR('',#355,1000.);
#206=VECTOR('',#358,1000.);
#207=VECTOR('',#359,1000.);
#208=VECTOR('',#360,1000.);
#209=VECTOR('',#361,1000.);
#210=VECTOR('',#362,1000.);
#211=VECTOR('',#363,1000.);
#212=VECTOR('',#364,1000.);
#213=VECTOR('',#367,1000.);
#214=VECTOR('',#368,1000.);
#215=VECTOR('',#369,1000.);
#216=VECTOR('',#370,1000.);
#217=VECTOR('',#371,1000.);
#218=VECTOR('',#372,1000.);
#219=VECTOR('',#373,1000.);
#220=VECTOR('',#376,1000.);
#221=VECTOR('',#377,1000.);
#222=VECTOR('',#380,1000.);
#223=VECTOR('',#381,1000.);
#224=VECTOR('',#386,1000.);
#225=VECTOR('',#391,1000.);
#226=VECTOR('',#398,1000.);
#227=VECTOR('',#399,1000.);
#228=VECTOR('',#400,1000.);
#229=VECTOR('',#401,1000.);
#230=VECTOR('',#404,1000.);
#231=VECTOR('',#405,1000.);
#232=VECTOR('',#406,1000.);
#233=VECTOR('',#409,1000.);
#234=VECTOR('',#410,1000.);
#235=VECTOR('',#411,1000.);
#236=VECTOR('',#414,1000.);
#237=VECTOR('',#415,1000.);
#238=EDGE_LOOP('',(#34,#35,#36,#37));
#239=EDGE_LOOP('',(#38,#39,#40,#41,#42,#43,#44,#45));
#240=EDGE_LOOP('',(#46,#47,#48,#49,#50,#51,#52,#53));
#241=EDGE_LOOP('',(#54,#55,#56,#57));
#242=EDGE_LOOP('',(#58,#59,#60,#61));
#243=EDGE_LOOP('',(#62,#63,#64,#65));
#244=EDGE_LOOP('',(#66,#67,#68,#69));
#245=EDGE_LOOP('',(#70,#71,#72,#73));
#246=EDGE_LOOP('',(#74,#75,#76,#77));
#247=EDGE_LOOP('',(#78,#79,#80,#81));
#248=EDGE_LOOP('',(#82,#83,#84,#85));
#249=EDGE_LOOP('',(#86,#87,#88,#89));
#250=EDGE_LOOP('',(#90,#91,#92,#93));
#251=EDGE_LOOP('',(#94,#95,#96,#97));
#252=EDGE_LOOP('',(#98,#99,#100,#101));
#253=EDGE_LOOP('',(#102,#103,#104,#105));
#254=FACE_BOUND('',#238,.T.);
#255=FACE_BOUND('',#239,.T.);
#256=FACE_BOUND('',#240,.T.);
#257=FACE_BOUND('',#241,.T.);
#258=FACE_BOUND('',#242,.T.);
#259=FACE_BOUND('',#243,.T.);
#260=FACE_BOUND('',#244,.T.);
#261=FACE_BOUND('',#245,.T.);
#262=FACE_BOUND('',#246,.T.);
#263=FACE_BOUND('',#247,.T.);
#264=FACE_BOUND('',#248,.T.);
#265=FACE_BOUND('',#249,.T.);
#266=FACE_BOUND('',#250,.T.);
#267=FACE_BOUND('',#251,.T.);
#268=FACE_BOUND('',#252,.T.);
#269=FACE_BOUND('',#253,.T.);
#270=PLANE('',#329);
#271=PLANE('',#330);
#272=PLANE('',#331);
#273=PLANE('',#332);
#274=PLANE('',#333);
#275=PLANE('',#334);
#276=PLANE('',#335);
#277=PLANE('',#336);
#278=PLANE('',#337);
#279=PLANE('',#338);
#280=PLANE('',#340);
#281=PLANE('',#341);
#282=PLANE('',#342);
#283=PLANE('',#343);
#284=PLANE('',#344);
#285=PLANE('',#345);
#286=ADVANCED_FACE('',(#254),#270,.F.);
#287=ADVANCED_FACE('',(#255),#271,.F.);
#288=ADVANCED_FACE('',(#256),#272,.F.);
#289=ADVANCED_FACE('',(#257),#273,.T.);
#290=ADVANCED_FACE('',(#258),#274,.F.);
#291=ADVANCED_FACE('',(#259),#275,.F.);
#292=ADVANCED_FACE('',(#260),#276,.T.);
#293=ADVANCED_FACE('',(#261),#277,.F.);
#294=ADVANCED_FACE('',(#262),#278,.F.);
#295=ADVANCED_FACE('',(#263),#279,.T.);
#296=ADVANCED_FACE('',(#264),#280,.T.);
#297=ADVANCED_FACE('',(#265),#281,.T.);
#298=ADVANCED_FACE('',(#266),#282,.T.);
#299=ADVANCED_FACE('',(#267),#283,.T.);
#300=ADVANCED_FACE('',(#268),#284,.F.);
#301=ADVANCED_FACE('',(#269),#285,.T.);
#302=CLOSED_SHELL('',(#286,#287,#288,#289,#290,#291,#292,#293,#294,#295));
#303=CLOSED_SHELL('',(#296,#297,#298,#299,#300,#301));
#304=STYLED_ITEM('',(#306),#320);
#305=STYLED_ITEM('',(#307),#321);
#306=PRESENTATION_STYLE_ASSIGNMENT((#308));
#307=PRESENTATION_STYLE_ASSIGNMENT((#309));
#308=SURFACE_STYLE_USAGE(.BOTH.,#310);
#309=SURFACE_STYLE_USAGE(.BOTH.,#311);
#310=SURFACE_SIDE_STYLE('',(#312));
#311=SURFACE_SIDE_STYLE('',(#313));
#312=SURFACE_STYLE_FILL_AREA(#314);
#313=SURFACE_STYLE_FILL_AREA(#315);
#314=FILL_AREA_STYLE('',(#316));
#315=FILL_AREA_STYLE('',(#317));
#316=FILL_AREA_STYLE_COLOUR('',#318);
#317=FILL_AREA_STYLE_COLOUR('',#319);
#318=COLOUR_RGB('',0.119999997317791,0.119999997317791,0.119999997317791);
#319=COLOUR_RGB('',0.860000014305115,0.860000014305115,0.860000014305115);
#320=MANIFOLD_SOLID_BREP('',#302);
#321=MANIFOLD_SOLID_BREP('',#303);
#322=SHAPE_DEFINITION_REPRESENTATION(#515,#325);
#323=SHAPE_DEFINITION_REPRESENTATION(#514,#326);
#324=SHAPE_DEFINITION_REPRESENTATION(#517,#327);
#325=SHAPE_REPRESENTATION('body_SSMC_25xx',(#328),#506);
#326=SHAPE_REPRESENTATION('WE-IndMAIA_SSMC-25xx',(#328,#339,#346,#347),
#505);
#327=SHAPE_REPRESENTATION('land_pattern_SSMC_25xx',(#328),#507);
#328=AXIS2_PLACEMENT_3D('',#424,#348,#349);
#329=AXIS2_PLACEMENT_3D('',#425,#350,#351);
#330=AXIS2_PLACEMENT_3D('',#434,#356,#357);
#331=AXIS2_PLACEMENT_3D('',#448,#365,#366);
#332=AXIS2_PLACEMENT_3D('',#462,#374,#375);
#333=AXIS2_PLACEMENT_3D('',#465,#378,#379);
#334=AXIS2_PLACEMENT_3D('',#468,#382,#383);
#335=AXIS2_PLACEMENT_3D('',#469,#384,#385);
#336=AXIS2_PLACEMENT_3D('',#471,#387,#388);
#337=AXIS2_PLACEMENT_3D('',#472,#389,#390);
#338=AXIS2_PLACEMENT_3D('',#474,#392,#393);
#339=AXIS2_PLACEMENT_3D('',#475,#394,#395);
#340=AXIS2_PLACEMENT_3D('',#476,#396,#397);
#341=AXIS2_PLACEMENT_3D('',#485,#402,#403);
#342=AXIS2_PLACEMENT_3D('',#491,#407,#408);
#343=AXIS2_PLACEMENT_3D('',#497,#412,#413);
#344=AXIS2_PLACEMENT_3D('',#500,#416,#417);
#345=AXIS2_PLACEMENT_3D('',#501,#418,#419);
#346=AXIS2_PLACEMENT_3D('',#502,#420,#421);
#347=AXIS2_PLACEMENT_3D('',#503,#422,#423);
#348=DIRECTION('',(0.,0.,1.));
#349=DIRECTION('',(1.,0.,0.));
#350=DIRECTION('',(-1.,0.,0.));
#351=DIRECTION('',(0.,0.,1.));
#352=DIRECTION('',(0.,1.,0.));
#353=DIRECTION('',(0.,0.,-1.));
#354=DIRECTION('',(0.,1.,0.));
#355=DIRECTION('',(0.,0.,-1.));
#356=DIRECTION('',(0.,1.,0.));
#357=DIRECTION('',(0.,0.,1.));
#358=DIRECTION('',(1.,0.,0.));
#359=DIRECTION('',(0.,0.,1.));
#360=DIRECTION('',(1.,0.,0.));
#361=DIRECTION('',(0.,0.,1.));
#362=DIRECTION('',(-1.,0.,0.));
#363=DIRECTION('',(0.,0.,-1.));
#364=DIRECTION('',(1.,0.,0.));
#365=DIRECTION('',(0.,-1.,0.));
#366=DIRECTION('',(0.,0.,-1.));
#367=DIRECTION('',(-1.,0.,0.));
#368=DIRECTION('',(0.,0.,1.));
#369=DIRECTION('',(-1.,0.,0.));
#370=DIRECTION('',(-1.,0.,0.));
#371=DIRECTION('',(0.,0.,-1.));
#372=DIRECTION('',(1.,0.,0.));
#373=DIRECTION('',(0.,0.,1.));
#374=DIRECTION('',(0.,0.,1.));
#375=DIRECTION('',(1.,0.,0.));
#376=DIRECTION('',(1.0842021724855E-16,-1.,0.));
#377=DIRECTION('',(1.0842021724855E-16,-1.,0.));
#378=DIRECTION('',(1.,0.,0.));
#379=DIRECTION('',(0.,0.,-1.));
#380=DIRECTION('',(0.,1.,0.));
#381=DIRECTION('',(0.,-1.,0.));
#382=DIRECTION('',(0.,0.,1.));
#383=DIRECTION('',(1.,0.,0.));
#384=DIRECTION('',(-1.,-1.0842021724855E-16,0.));
#385=DIRECTION('',(1.0842021724855E-16,-1.,0.));
#386=DIRECTION('',(1.0842021724855E-16,-1.,0.));
#387=DIRECTION('',(0.,0.,-1.));
#388=DIRECTION('',(-1.,0.,0.));
#389=DIRECTION('',(-1.,-1.0842021724855E-16,0.));
#390=DIRECTION('',(1.0842021724855E-16,-1.,0.));
#391=DIRECTION('',(1.0842021724855E-16,-1.,0.));
#392=DIRECTION('',(0.,0.,1.));
#393=DIRECTION('',(1.,0.,0.));
#394=DIRECTION('',(0.,0.,1.));
#395=DIRECTION('',(1.,0.,0.));
#396=DIRECTION('',(1.,0.,0.));
#397=DIRECTION('',(0.,0.,-1.));
#398=DIRECTION('',(0.,-1.,0.));
#399=DIRECTION('',(0.,0.,-1.));
#400=DIRECTION('',(0.,-1.,0.));
#401=DIRECTION('',(0.,0.,-1.));
#402=DIRECTION('',(0.,-1.,0.));
#403=DIRECTION('',(0.,0.,-1.));
#404=DIRECTION('',(-1.,0.,0.));
#405=DIRECTION('',(-1.,0.,0.));
#406=DIRECTION('',(0.,0.,-1.));
#407=DIRECTION('',(-1.,0.,0.));
#408=DIRECTION('',(0.,0.,1.));
#409=DIRECTION('',(0.,1.,0.));
#410=DIRECTION('',(0.,1.,0.));
#411=DIRECTION('',(0.,0.,-1.));
#412=DIRECTION('',(0.,1.,0.));
#413=DIRECTION('',(0.,0.,1.));
#414=DIRECTION('',(1.,0.,0.));
#415=DIRECTION('',(1.,0.,0.));
#416=DIRECTION('',(0.,0.,-1.));
#417=DIRECTION('',(-1.,0.,0.));
#418=DIRECTION('',(0.,0.,-1.));
#419=DIRECTION('',(-1.,0.,0.));
#420=DIRECTION('',(2.49800180540661E-16,-6.66133814775094E-16,1.));
#421=DIRECTION('',(1.26287869051112E-15,-1.,-6.66133814775094E-16));
#422=DIRECTION('',(-3.11344558092196E-17,3.03906027028233E-16,1.));
#423=DIRECTION('',(-8.32667268468867E-17,-1.,3.03906027028233E-16));
#424=CARTESIAN_POINT('',(0.,0.,0.));
#425=CARTESIAN_POINT('',(1.25,-1.,1.2));
#426=CARTESIAN_POINT('',(1.25,-1.,1.1998));
#427=CARTESIAN_POINT('',(1.25,-1.,1.1998));
#428=CARTESIAN_POINT('',(1.25,1.,1.1998));
#429=CARTESIAN_POINT('',(1.25,-1.,1.2));
#430=CARTESIAN_POINT('',(1.25,-1.,0.));
#431=CARTESIAN_POINT('',(1.25,-1.,0.));
#432=CARTESIAN_POINT('',(1.25,1.,0.));
#433=CARTESIAN_POINT('',(1.25,1.,1.2));
#434=CARTESIAN_POINT('',(-1.25,-1.,1.2));
#435=CARTESIAN_POINT('',(0.550000000000001,-1.,1.1998));
#436=CARTESIAN_POINT('',(0.550000000000001,-1.,1.1998));
#437=CARTESIAN_POINT('',(0.550000000000001,-1.,1.1998));
#438=CARTESIAN_POINT('',(0.550000000000001,-1.,1.2));
#439=CARTESIAN_POINT('',(-1.25,-1.,1.2));
#440=CARTESIAN_POINT('',(-0.550000000000001,-1.,1.2));
#441=CARTESIAN_POINT('',(-0.550000000000001,-1.,1.1998));
#442=CARTESIAN_POINT('',(-0.550000000000001,-1.,1.1998));
#443=CARTESIAN_POINT('',(-0.550000000000001,-1.,1.1998));
#444=CARTESIAN_POINT('',(-1.25,-1.,1.1998));
#445=CARTESIAN_POINT('',(-1.25,-1.,1.2));
#446=CARTESIAN_POINT('',(-1.25,-1.,0.));
#447=CARTESIAN_POINT('',(-1.25,-1.,0.));
#448=CARTESIAN_POINT('',(1.25,1.,1.2));
#449=CARTESIAN_POINT('',(1.25,1.,1.2));
#450=CARTESIAN_POINT('',(0.550000000000001,1.,1.2));
#451=CARTESIAN_POINT('',(-0.550000000000001,1.,1.2));
#452=CARTESIAN_POINT('',(0.550000000000001,1.,1.1998));
#453=CARTESIAN_POINT('',(0.550000000000001,1.,1.1998));
#454=CARTESIAN_POINT('',(1.25,1.,1.1998));
#455=CARTESIAN_POINT('',(1.25,1.,0.));
#456=CARTESIAN_POINT('',(-1.25,1.,0.));
#457=CARTESIAN_POINT('',(-1.25,1.,1.2));
#458=CARTESIAN_POINT('',(-1.25,1.,1.1998));
#459=CARTESIAN_POINT('',(-1.25,1.,1.1998));
#460=CARTESIAN_POINT('',(-0.550000000000001,1.,1.1998));
#461=CARTESIAN_POINT('',(-0.550000000000001,1.,1.1998));
#462=CARTESIAN_POINT('',(0.,0.,1.2));
#463=CARTESIAN_POINT('',(0.550000000000001,1.,1.2));
#464=CARTESIAN_POINT('',(-0.550000000000001,1.,1.2));
#465=CARTESIAN_POINT('',(-1.25,1.,1.2));
#466=CARTESIAN_POINT('',(-1.25,-1.,1.1998));
#467=CARTESIAN_POINT('',(-1.25,1.,0.));
#468=CARTESIAN_POINT('',(0.,0.,0.));
#469=CARTESIAN_POINT('',(-0.550000000000001,1.,1.1998));
#470=CARTESIAN_POINT('',(-0.550000000000001,1.,1.1998));
#471=CARTESIAN_POINT('',(0.,0.,1.1998));
#472=CARTESIAN_POINT('',(0.550000000000001,1.,1.1998));
#473=CARTESIAN_POINT('',(0.550000000000001,1.,1.1998));
#474=CARTESIAN_POINT('',(0.,0.,1.1998));
#475=CARTESIAN_POINT('',(0.,0.,0.));
#476=CARTESIAN_POINT('',(1.,0.349999999999996,0.0002));
#477=CARTESIAN_POINT('',(1.,0.349999999999996,0.));
#478=CARTESIAN_POINT('',(1.,0.349999999999996,0.));
#479=CARTESIAN_POINT('',(1.,-0.350000000000024,0.));
#480=CARTESIAN_POINT('',(1.,0.349999999999996,0.0002));
#481=CARTESIAN_POINT('',(1.,0.349999999999996,0.0002));
#482=CARTESIAN_POINT('',(1.,0.349999999999996,0.0002));
#483=CARTESIAN_POINT('',(1.,-0.350000000000024,0.0002));
#484=CARTESIAN_POINT('',(1.,-0.350000000000024,0.0002));
#485=CARTESIAN_POINT('',(1.,-0.350000000000024,0.0002));
#486=CARTESIAN_POINT('',(1.,-0.350000000000024,0.));
#487=CARTESIAN_POINT('',(-1.,-0.350000000000024,0.));
#488=CARTESIAN_POINT('',(1.,-0.350000000000024,0.0002));
#489=CARTESIAN_POINT('',(-1.,-0.350000000000024,0.0002));
#490=CARTESIAN_POINT('',(-1.,-0.350000000000024,0.0002));
#491=CARTESIAN_POINT('',(-1.,-0.350000000000024,0.0002));
#492=CARTESIAN_POINT('',(-1.,-0.350000000000024,0.));
#493=CARTESIAN_POINT('',(-1.,0.349999999999996,0.));
#494=CARTESIAN_POINT('',(-1.,-0.350000000000024,0.0002));
#495=CARTESIAN_POINT('',(-1.,0.349999999999996,0.0002));
#496=CARTESIAN_POINT('',(-1.,0.349999999999996,0.0002));
#497=CARTESIAN_POINT('',(-1.,0.349999999999996,0.0002));
#498=CARTESIAN_POINT('',(-1.,0.349999999999996,0.));
#499=CARTESIAN_POINT('',(-1.,0.349999999999996,0.0002));
#500=CARTESIAN_POINT('',(0.,0.,0.0002));
#501=CARTESIAN_POINT('',(0.,0.,0.));
#502=CARTESIAN_POINT('',(0.900000000000024,4.93287731158205E-16,1.1998));
#503=CARTESIAN_POINT('',(-0.899999999999977,1.62630325872826E-16,1.1998));
#504=MECHANICAL_DESIGN_GEOMETRIC_PRESENTATION_REPRESENTATION('',(#304,#305),
#505);
#505=(
GEOMETRIC_REPRESENTATION_CONTEXT(3)
GLOBAL_UNCERTAINTY_ASSIGNED_CONTEXT((#508))
GLOBAL_UNIT_ASSIGNED_CONTEXT((#513,#512,#511))
REPRESENTATION_CONTEXT('WE-IndMAIA_SSMC-25xx','TOP_LEVEL_ASSEMBLY_PART')
);
#506=(
GEOMETRIC_REPRESENTATION_CONTEXT(3)
GLOBAL_UNCERTAINTY_ASSIGNED_CONTEXT((#509))
GLOBAL_UNIT_ASSIGNED_CONTEXT((#513,#512,#511))
REPRESENTATION_CONTEXT('body_SSMC_25xx','COMPONENT_PART')
);
#507=(
GEOMETRIC_REPRESENTATION_CONTEXT(3)
GLOBAL_UNCERTAINTY_ASSIGNED_CONTEXT((#510))
GLOBAL_UNIT_ASSIGNED_CONTEXT((#513,#512,#511))
REPRESENTATION_CONTEXT('land_pattern_SSMC_25xx','COMPONENT_PART')
);
#508=UNCERTAINTY_MEASURE_WITH_UNIT(LENGTH_MEASURE(0.005),#513,
'DISTANCE_ACCURACY_VALUE','Maximum Tolerance applied to model');
#509=UNCERTAINTY_MEASURE_WITH_UNIT(LENGTH_MEASURE(0.005),#513,
'DISTANCE_ACCURACY_VALUE','Maximum Tolerance applied to model');
#510=UNCERTAINTY_MEASURE_WITH_UNIT(LENGTH_MEASURE(0.005),#513,
'DISTANCE_ACCURACY_VALUE','Maximum Tolerance applied to model');
#511=(
NAMED_UNIT(*)
SI_UNIT($,.STERADIAN.)
SOLID_ANGLE_UNIT()
);
#512=(
NAMED_UNIT(*)
PLANE_ANGLE_UNIT()
SI_UNIT($,.RADIAN.)
);
#513=(
LENGTH_UNIT()
NAMED_UNIT(*)
SI_UNIT(.MILLI.,.METRE.)
);
#514=PRODUCT_DEFINITION_SHAPE('','',#520);
#515=PRODUCT_DEFINITION_SHAPE('','',#521);
#516=PRODUCT_DEFINITION_SHAPE(' ','NAUO PRDDFN',#21);
#517=PRODUCT_DEFINITION_SHAPE('','',#522);
#518=PRODUCT_DEFINITION_SHAPE(' ','NAUO PRDDFN',#22);
#519=PRODUCT_DEFINITION_SHAPE(' ','NAUO PRDDFN',#23);
#520=PRODUCT_DEFINITION('','',#526,#523);
#521=PRODUCT_DEFINITION('','',#527,#524);
#522=PRODUCT_DEFINITION('','',#528,#525);
#523=PRODUCT_DEFINITION_CONTEXT('',#542,'design');
#524=PRODUCT_DEFINITION_CONTEXT('',#542,'design');
#525=PRODUCT_DEFINITION_CONTEXT('',#542,'design');
#526=PRODUCT_DEFINITION_FORMATION_WITH_SPECIFIED_SOURCE('','',#532,
 .NOT_KNOWN.);
#527=PRODUCT_DEFINITION_FORMATION_WITH_SPECIFIED_SOURCE('','',#533,
 .NOT_KNOWN.);
#528=PRODUCT_DEFINITION_FORMATION_WITH_SPECIFIED_SOURCE('','',#534,
 .NOT_KNOWN.);
#529=PRODUCT_RELATED_PRODUCT_CATEGORY('','',(#532));
#530=PRODUCT_RELATED_PRODUCT_CATEGORY('','',(#533));
#531=PRODUCT_RELATED_PRODUCT_CATEGORY('','',(#534));
#532=PRODUCT('WE-IndMAIA_SSMC-25xx','WE-IndMAIA_SSMC-25xx',
'WE-IndMAIA_SSMC-25xx',(#538));
#533=PRODUCT('body_SSMC_25xx','body_SSMC_25xx','body_SSMC_25xx',(#539));
#534=PRODUCT('land_pattern_SSMC_25xx','land_pattern_SSMC_25xx',
'land_pattern_SSMC_25xx',(#540));
#535=PRODUCT_CATEGORY('','');
#536=PRODUCT_CATEGORY('','');
#537=PRODUCT_CATEGORY('','');
#538=PRODUCT_CONTEXT('',#542,'mechanical');
#539=PRODUCT_CONTEXT('',#542,'mechanical');
#540=PRODUCT_CONTEXT('',#542,'mechanical');
#541=APPLICATION_PROTOCOL_DEFINITION('international standard',
'automotive_design',2010,#542);
#542=APPLICATION_CONTEXT(
'core data for automotive mechanical design processes');
ENDSEC;
END-ISO-10303-21;
