ISO-10303-21;
HEADER;
/* Generated by software containing ST-Developer
 * from STEP Tools, Inc. (www.steptools.com) 
 */
/* OPTION: strings as raw bytes, not using required /X/ escapes */

FILE_DESCRIPTION(
/* description */ ('Unknown'),
/* implementation_level */ '2;1');

FILE_NAME(
/* name */ '1.6x0.8x0.8x0.4_maxSized',
/* time_stamp */ '2019-08-02T17:21:54+08:00',
/* author */ ('Unknown'),
/* organization */ ('Unknown'),
/* preprocessor_version */ 'ST-DEVELOPER v16.7',
/* originating_system */ 'DEX',
/* authorisation */ $);

FILE_SCHEMA (('AUTOMOTIVE_DESIGN {1 0 10303 214 3 1 1}'));
ENDSEC;

DATA;
#10=PROPERTY_DEFINITION_REPRESENTATION(#14,#12);
#11=PROPERTY_DEFINITION_REPRESENTATION(#15,#13);
#12=REPRESENTATION('',(#16),#625);
#13=REPRESENTATION('',(#17),#625);
#14=PROPERTY_DEFINITION('pmi validation property','',#638);
#15=PROPERTY_DEFINITION('pmi validation property','',#638);
#16=VALUE_REPRESENTATION_ITEM('number of annotations',COUNT_MEASURE(0.));
#17=VALUE_REPRESENTATION_ITEM('number of views',COUNT_MEASURE(0.));
#18=COLOUR_RGB('',0.119999997317791,0.119999997317791,0.119999997317791);
#19=COLOUR_RGB('',0.645180702209473,0.678915679454803,0.699999988079071);
#20=CONTEXT_DEPENDENT_SHAPE_REPRESENTATION(#30,#640);
#21=CONTEXT_DEPENDENT_SHAPE_REPRESENTATION(#31,#643);
#22=CONTEXT_DEPENDENT_SHAPE_REPRESENTATION(#32,#645);
#23=CONTEXT_DEPENDENT_SHAPE_REPRESENTATION(#33,#646);
#24=CONTEXT_DEPENDENT_SHAPE_REPRESENTATION(#34,#647);
#25=NEXT_ASSEMBLY_USAGE_OCCURRENCE('maxSized_Square','maxSized_Square',
'maxSized_Square',#648,#649,'');
#26=NEXT_ASSEMBLY_USAGE_OCCURRENCE('Contact_0.8x0.8x0.4',
'Contact_0.8x0.8x0.4','Contact_0.8x0.8x0.4',#650,#651,'');
#27=NEXT_ASSEMBLY_USAGE_OCCURRENCE('Body_1.6x0.8x0.8x0.4',
'Body_1.6x0.8x0.8x0.4','Body_1.6x0.8x0.8x0.4',#650,#652,'');
#28=NEXT_ASSEMBLY_USAGE_OCCURRENCE('Contact_0.8x0.8x0.4',
'Contact_0.8x0.8x0.4','Contact_0.8x0.8x0.4',#650,#651,'');
#29=NEXT_ASSEMBLY_USAGE_OCCURRENCE('1.6x0.8x0.8x0.4','1.6x0.8x0.8x0.4',
'1.6x0.8x0.8x0.4',#648,#650,'');
#30=(
REPRESENTATION_RELATIONSHIP(' ',' ',#427,#428)
REPRESENTATION_RELATIONSHIP_WITH_TRANSFORMATION(#35)
SHAPE_REPRESENTATION_RELATIONSHIP()
);
#31=(
REPRESENTATION_RELATIONSHIP(' ',' ',#429,#430)
REPRESENTATION_RELATIONSHIP_WITH_TRANSFORMATION(#36)
SHAPE_REPRESENTATION_RELATIONSHIP()
);
#32=(
REPRESENTATION_RELATIONSHIP(' ',' ',#431,#430)
REPRESENTATION_RELATIONSHIP_WITH_TRANSFORMATION(#37)
SHAPE_REPRESENTATION_RELATIONSHIP()
);
#33=(
REPRESENTATION_RELATIONSHIP(' ',' ',#429,#430)
REPRESENTATION_RELATIONSHIP_WITH_TRANSFORMATION(#38)
SHAPE_REPRESENTATION_RELATIONSHIP()
);
#34=(
REPRESENTATION_RELATIONSHIP(' ',' ',#430,#428)
REPRESENTATION_RELATIONSHIP_WITH_TRANSFORMATION(#39)
SHAPE_REPRESENTATION_RELATIONSHIP()
);
#35=ITEM_DEFINED_TRANSFORMATION(' ',' ',#432,#439);
#36=ITEM_DEFINED_TRANSFORMATION(' ',' ',#432,#446);
#37=ITEM_DEFINED_TRANSFORMATION(' ',' ',#432,#453);
#38=ITEM_DEFINED_TRANSFORMATION(' ',' ',#432,#454);
#39=ITEM_DEFINED_TRANSFORMATION(' ',' ',#432,#455);
#40=SHAPE_REPRESENTATION_RELATIONSHIP('','',#427,#43);
#41=SHAPE_REPRESENTATION_RELATIONSHIP('','',#429,#44);
#42=SHAPE_REPRESENTATION_RELATIONSHIP('','',#431,#45);
#43=ADVANCED_BREP_SHAPE_REPRESENTATION('',(#419),#626);
#44=ADVANCED_BREP_SHAPE_REPRESENTATION('',(#420),#628);
#45=ADVANCED_BREP_SHAPE_REPRESENTATION('',(#421),#629);
#46=ORIENTED_EDGE('',*,*,#118,.T.);
#47=ORIENTED_EDGE('',*,*,#119,.F.);
#48=ORIENTED_EDGE('',*,*,#120,.F.);
#49=ORIENTED_EDGE('',*,*,#121,.T.);
#50=ORIENTED_EDGE('',*,*,#122,.T.);
#51=ORIENTED_EDGE('',*,*,#123,.F.);
#52=ORIENTED_EDGE('',*,*,#124,.F.);
#53=ORIENTED_EDGE('',*,*,#119,.T.);
#54=ORIENTED_EDGE('',*,*,#125,.T.);
#55=ORIENTED_EDGE('',*,*,#126,.F.);
#56=ORIENTED_EDGE('',*,*,#127,.F.);
#57=ORIENTED_EDGE('',*,*,#123,.T.);
#58=ORIENTED_EDGE('',*,*,#128,.T.);
#59=ORIENTED_EDGE('',*,*,#121,.F.);
#60=ORIENTED_EDGE('',*,*,#129,.F.);
#61=ORIENTED_EDGE('',*,*,#126,.T.);
#62=ORIENTED_EDGE('',*,*,#120,.T.);
#63=ORIENTED_EDGE('',*,*,#124,.T.);
#64=ORIENTED_EDGE('',*,*,#127,.T.);
#65=ORIENTED_EDGE('',*,*,#129,.T.);
#66=ORIENTED_EDGE('',*,*,#118,.F.);
#67=ORIENTED_EDGE('',*,*,#128,.F.);
#68=ORIENTED_EDGE('',*,*,#125,.F.);
#69=ORIENTED_EDGE('',*,*,#122,.F.);
#70=ORIENTED_EDGE('',*,*,#130,.F.);
#71=ORIENTED_EDGE('',*,*,#131,.F.);
#72=ORIENTED_EDGE('',*,*,#132,.T.);
#73=ORIENTED_EDGE('',*,*,#133,.T.);
#74=ORIENTED_EDGE('',*,*,#134,.F.);
#75=ORIENTED_EDGE('',*,*,#133,.F.);
#76=ORIENTED_EDGE('',*,*,#135,.T.);
#77=ORIENTED_EDGE('',*,*,#136,.T.);
#78=ORIENTED_EDGE('',*,*,#137,.F.);
#79=ORIENTED_EDGE('',*,*,#136,.F.);
#80=ORIENTED_EDGE('',*,*,#138,.T.);
#81=ORIENTED_EDGE('',*,*,#139,.T.);
#82=ORIENTED_EDGE('',*,*,#140,.F.);
#83=ORIENTED_EDGE('',*,*,#139,.F.);
#84=ORIENTED_EDGE('',*,*,#141,.T.);
#85=ORIENTED_EDGE('',*,*,#131,.T.);
#86=ORIENTED_EDGE('',*,*,#132,.F.);
#87=ORIENTED_EDGE('',*,*,#141,.F.);
#88=ORIENTED_EDGE('',*,*,#138,.F.);
#89=ORIENTED_EDGE('',*,*,#135,.F.);
#90=ORIENTED_EDGE('',*,*,#130,.T.);
#91=ORIENTED_EDGE('',*,*,#134,.T.);
#92=ORIENTED_EDGE('',*,*,#137,.T.);
#93=ORIENTED_EDGE('',*,*,#140,.T.);
#94=ORIENTED_EDGE('',*,*,#142,.F.);
#95=ORIENTED_EDGE('',*,*,#143,.F.);
#96=ORIENTED_EDGE('',*,*,#144,.T.);
#97=ORIENTED_EDGE('',*,*,#145,.T.);
#98=ORIENTED_EDGE('',*,*,#146,.F.);
#99=ORIENTED_EDGE('',*,*,#145,.F.);
#100=ORIENTED_EDGE('',*,*,#147,.T.);
#101=ORIENTED_EDGE('',*,*,#148,.T.);
#102=ORIENTED_EDGE('',*,*,#149,.F.);
#103=ORIENTED_EDGE('',*,*,#148,.F.);
#104=ORIENTED_EDGE('',*,*,#150,.T.);
#105=ORIENTED_EDGE('',*,*,#151,.T.);
#106=ORIENTED_EDGE('',*,*,#152,.F.);
#107=ORIENTED_EDGE('',*,*,#151,.F.);
#108=ORIENTED_EDGE('',*,*,#153,.T.);
#109=ORIENTED_EDGE('',*,*,#143,.T.);
#110=ORIENTED_EDGE('',*,*,#144,.F.);
#111=ORIENTED_EDGE('',*,*,#153,.F.);
#112=ORIENTED_EDGE('',*,*,#150,.F.);
#113=ORIENTED_EDGE('',*,*,#147,.F.);
#114=ORIENTED_EDGE('',*,*,#142,.T.);
#115=ORIENTED_EDGE('',*,*,#146,.T.);
#116=ORIENTED_EDGE('',*,*,#149,.T.);
#117=ORIENTED_EDGE('',*,*,#152,.T.);
#118=EDGE_CURVE('',#154,#155,#178,.T.);
#119=EDGE_CURVE('',#156,#155,#179,.T.);
#120=EDGE_CURVE('',#157,#156,#180,.T.);
#121=EDGE_CURVE('',#157,#154,#181,.T.);
#122=EDGE_CURVE('',#155,#158,#182,.T.);
#123=EDGE_CURVE('',#159,#158,#183,.T.);
#124=EDGE_CURVE('',#156,#159,#184,.T.);
#125=EDGE_CURVE('',#158,#160,#185,.T.);
#126=EDGE_CURVE('',#161,#160,#186,.T.);
#127=EDGE_CURVE('',#159,#161,#187,.T.);
#128=EDGE_CURVE('',#160,#154,#188,.T.);
#129=EDGE_CURVE('',#161,#157,#189,.T.);
#130=EDGE_CURVE('',#162,#163,#190,.T.);
#131=EDGE_CURVE('',#164,#162,#191,.T.);
#132=EDGE_CURVE('',#164,#165,#192,.T.);
#133=EDGE_CURVE('',#165,#163,#193,.T.);
#134=EDGE_CURVE('',#163,#166,#194,.T.);
#135=EDGE_CURVE('',#165,#167,#195,.T.);
#136=EDGE_CURVE('',#167,#166,#196,.T.);
#137=EDGE_CURVE('',#166,#168,#197,.T.);
#138=EDGE_CURVE('',#167,#169,#198,.T.);
#139=EDGE_CURVE('',#169,#168,#199,.T.);
#140=EDGE_CURVE('',#168,#162,#200,.T.);
#141=EDGE_CURVE('',#169,#164,#201,.T.);
#142=EDGE_CURVE('',#170,#171,#202,.T.);
#143=EDGE_CURVE('',#172,#170,#203,.T.);
#144=EDGE_CURVE('',#172,#173,#204,.T.);
#145=EDGE_CURVE('',#173,#171,#205,.T.);
#146=EDGE_CURVE('',#171,#174,#206,.T.);
#147=EDGE_CURVE('',#173,#175,#207,.T.);
#148=EDGE_CURVE('',#175,#174,#208,.T.);
#149=EDGE_CURVE('',#174,#176,#209,.T.);
#150=EDGE_CURVE('',#175,#177,#210,.T.);
#151=EDGE_CURVE('',#177,#176,#211,.T.);
#152=EDGE_CURVE('',#176,#170,#212,.T.);
#153=EDGE_CURVE('',#177,#172,#213,.T.);
#154=VERTEX_POINT('',#543);
#155=VERTEX_POINT('',#544);
#156=VERTEX_POINT('',#546);
#157=VERTEX_POINT('',#548);
#158=VERTEX_POINT('',#552);
#159=VERTEX_POINT('',#554);
#160=VERTEX_POINT('',#558);
#161=VERTEX_POINT('',#560);
#162=VERTEX_POINT('',#570);
#163=VERTEX_POINT('',#571);
#164=VERTEX_POINT('',#573);
#165=VERTEX_POINT('',#575);
#166=VERTEX_POINT('',#579);
#167=VERTEX_POINT('',#581);
#168=VERTEX_POINT('',#585);
#169=VERTEX_POINT('',#587);
#170=VERTEX_POINT('',#597);
#171=VERTEX_POINT('',#598);
#172=VERTEX_POINT('',#600);
#173=VERTEX_POINT('',#602);
#174=VERTEX_POINT('',#606);
#175=VERTEX_POINT('',#608);
#176=VERTEX_POINT('',#612);
#177=VERTEX_POINT('',#614);
#178=LINE('',#542,#214);
#179=LINE('',#545,#215);
#180=LINE('',#547,#216);
#181=LINE('',#549,#217);
#182=LINE('',#551,#218);
#183=LINE('',#553,#219);
#184=LINE('',#555,#220);
#185=LINE('',#557,#221);
#186=LINE('',#559,#222);
#187=LINE('',#561,#223);
#188=LINE('',#563,#224);
#189=LINE('',#564,#225);
#190=LINE('',#569,#226);
#191=LINE('',#572,#227);
#192=LINE('',#574,#228);
#193=LINE('',#576,#229);
#194=LINE('',#578,#230);
#195=LINE('',#580,#231);
#196=LINE('',#582,#232);
#197=LINE('',#584,#233);
#198=LINE('',#586,#234);
#199=LINE('',#588,#235);
#200=LINE('',#590,#236);
#201=LINE('',#591,#237);
#202=LINE('',#596,#238);
#203=LINE('',#599,#239);
#204=LINE('',#601,#240);
#205=LINE('',#603,#241);
#206=LINE('',#605,#242);
#207=LINE('',#607,#243);
#208=LINE('',#609,#244);
#209=LINE('',#611,#245);
#210=LINE('',#613,#246);
#211=LINE('',#615,#247);
#212=LINE('',#617,#248);
#213=LINE('',#618,#249);
#214=VECTOR('',#460,1000.);
#215=VECTOR('',#461,1000.);
#216=VECTOR('',#462,1000.);
#217=VECTOR('',#463,1000.);
#218=VECTOR('',#466,1000.);
#219=VECTOR('',#467,1000.);
#220=VECTOR('',#468,1000.);
#221=VECTOR('',#471,1000.);
#222=VECTOR('',#472,1000.);
#223=VECTOR('',#473,1000.);
#224=VECTOR('',#476,1000.);
#225=VECTOR('',#477,1000.);
#226=VECTOR('',#486,1000.);
#227=VECTOR('',#487,1000.);
#228=VECTOR('',#488,1000.);
#229=VECTOR('',#489,1000.);
#230=VECTOR('',#492,1000.);
#231=VECTOR('',#493,1000.);
#232=VECTOR('',#494,1000.);
#233=VECTOR('',#497,1000.);
#234=VECTOR('',#498,1000.);
#235=VECTOR('',#499,1000.);
#236=VECTOR('',#502,1000.);
#237=VECTOR('',#503,1000.);
#238=VECTOR('',#512,1000.);
#239=VECTOR('',#513,1000.);
#240=VECTOR('',#514,1000.);
#241=VECTOR('',#515,1000.);
#242=VECTOR('',#518,1000.);
#243=VECTOR('',#519,1000.);
#244=VECTOR('',#520,1000.);
#245=VECTOR('',#523,1000.);
#246=VECTOR('',#524,1000.);
#247=VECTOR('',#525,1000.);
#248=VECTOR('',#528,1000.);
#249=VECTOR('',#529,1000.);
#250=EDGE_LOOP('',(#46,#47,#48,#49));
#251=EDGE_LOOP('',(#50,#51,#52,#53));
#252=EDGE_LOOP('',(#54,#55,#56,#57));
#253=EDGE_LOOP('',(#58,#59,#60,#61));
#254=EDGE_LOOP('',(#62,#63,#64,#65));
#255=EDGE_LOOP('',(#66,#67,#68,#69));
#256=EDGE_LOOP('',(#70,#71,#72,#73));
#257=EDGE_LOOP('',(#74,#75,#76,#77));
#258=EDGE_LOOP('',(#78,#79,#80,#81));
#259=EDGE_LOOP('',(#82,#83,#84,#85));
#260=EDGE_LOOP('',(#86,#87,#88,#89));
#261=EDGE_LOOP('',(#90,#91,#92,#93));
#262=EDGE_LOOP('',(#94,#95,#96,#97));
#263=EDGE_LOOP('',(#98,#99,#100,#101));
#264=EDGE_LOOP('',(#102,#103,#104,#105));
#265=EDGE_LOOP('',(#106,#107,#108,#109));
#266=EDGE_LOOP('',(#110,#111,#112,#113));
#267=EDGE_LOOP('',(#114,#115,#116,#117));
#268=FACE_BOUND('',#250,.T.);
#269=FACE_BOUND('',#251,.T.);
#270=FACE_BOUND('',#252,.T.);
#271=FACE_BOUND('',#253,.T.);
#272=FACE_BOUND('',#254,.T.);
#273=FACE_BOUND('',#255,.T.);
#274=FACE_BOUND('',#256,.T.);
#275=FACE_BOUND('',#257,.T.);
#276=FACE_BOUND('',#258,.T.);
#277=FACE_BOUND('',#259,.T.);
#278=FACE_BOUND('',#260,.T.);
#279=FACE_BOUND('',#261,.T.);
#280=FACE_BOUND('',#262,.T.);
#281=FACE_BOUND('',#263,.T.);
#282=FACE_BOUND('',#264,.T.);
#283=FACE_BOUND('',#265,.T.);
#284=FACE_BOUND('',#266,.T.);
#285=FACE_BOUND('',#267,.T.);
#286=PLANE('',#433);
#287=PLANE('',#434);
#288=PLANE('',#435);
#289=PLANE('',#436);
#290=PLANE('',#437);
#291=PLANE('',#438);
#292=PLANE('',#440);
#293=PLANE('',#441);
#294=PLANE('',#442);
#295=PLANE('',#443);
#296=PLANE('',#444);
#297=PLANE('',#445);
#298=PLANE('',#447);
#299=PLANE('',#448);
#300=PLANE('',#449);
#301=PLANE('',#450);
#302=PLANE('',#451);
#303=PLANE('',#452);
#304=ADVANCED_FACE('',(#268),#286,.F.);
#305=ADVANCED_FACE('',(#269),#287,.F.);
#306=ADVANCED_FACE('',(#270),#288,.F.);
#307=ADVANCED_FACE('',(#271),#289,.F.);
#308=ADVANCED_FACE('',(#272),#290,.T.);
#309=ADVANCED_FACE('',(#273),#291,.F.);
#310=ADVANCED_FACE('',(#274),#292,.T.);
#311=ADVANCED_FACE('',(#275),#293,.T.);
#312=ADVANCED_FACE('',(#276),#294,.T.);
#313=ADVANCED_FACE('',(#277),#295,.T.);
#314=ADVANCED_FACE('',(#278),#296,.F.);
#315=ADVANCED_FACE('',(#279),#297,.T.);
#316=ADVANCED_FACE('',(#280),#298,.T.);
#317=ADVANCED_FACE('',(#281),#299,.T.);
#318=ADVANCED_FACE('',(#282),#300,.T.);
#319=ADVANCED_FACE('',(#283),#301,.T.);
#320=ADVANCED_FACE('',(#284),#302,.F.);
#321=ADVANCED_FACE('',(#285),#303,.T.);
#322=CLOSED_SHELL('',(#304,#305,#306,#307,#308,#309));
#323=CLOSED_SHELL('',(#310,#311,#312,#313,#314,#315));
#324=CLOSED_SHELL('',(#316,#317,#318,#319,#320,#321));
#325=STYLED_ITEM('',(#338),#419);
#326=STYLED_ITEM('',(#339),#310);
#327=STYLED_ITEM('',(#340),#311);
#328=STYLED_ITEM('',(#341),#312);
#329=STYLED_ITEM('',(#342),#313);
#330=STYLED_ITEM('',(#343),#314);
#331=STYLED_ITEM('',(#344),#315);
#332=STYLED_ITEM('',(#345),#316);
#333=STYLED_ITEM('',(#346),#317);
#334=STYLED_ITEM('',(#347),#318);
#335=STYLED_ITEM('',(#348),#319);
#336=STYLED_ITEM('',(#349),#320);
#337=STYLED_ITEM('',(#350),#321);
#338=PRESENTATION_STYLE_ASSIGNMENT((#351));
#339=PRESENTATION_STYLE_ASSIGNMENT((#352));
#340=PRESENTATION_STYLE_ASSIGNMENT((#353));
#341=PRESENTATION_STYLE_ASSIGNMENT((#354));
#342=PRESENTATION_STYLE_ASSIGNMENT((#355));
#343=PRESENTATION_STYLE_ASSIGNMENT((#356));
#344=PRESENTATION_STYLE_ASSIGNMENT((#357));
#345=PRESENTATION_STYLE_ASSIGNMENT((#358));
#346=PRESENTATION_STYLE_ASSIGNMENT((#359));
#347=PRESENTATION_STYLE_ASSIGNMENT((#360));
#348=PRESENTATION_STYLE_ASSIGNMENT((#361));
#349=PRESENTATION_STYLE_ASSIGNMENT((#362));
#350=PRESENTATION_STYLE_ASSIGNMENT((#363));
#351=SURFACE_STYLE_USAGE(.BOTH.,#364);
#352=SURFACE_STYLE_USAGE(.BOTH.,#365);
#353=SURFACE_STYLE_USAGE(.BOTH.,#366);
#354=SURFACE_STYLE_USAGE(.BOTH.,#367);
#355=SURFACE_STYLE_USAGE(.BOTH.,#368);
#356=SURFACE_STYLE_USAGE(.BOTH.,#369);
#357=SURFACE_STYLE_USAGE(.BOTH.,#370);
#358=SURFACE_STYLE_USAGE(.BOTH.,#371);
#359=SURFACE_STYLE_USAGE(.BOTH.,#372);
#360=SURFACE_STYLE_USAGE(.BOTH.,#373);
#361=SURFACE_STYLE_USAGE(.BOTH.,#374);
#362=SURFACE_STYLE_USAGE(.BOTH.,#375);
#363=SURFACE_STYLE_USAGE(.BOTH.,#376);
#364=SURFACE_SIDE_STYLE('',(#379,#377));
#365=SURFACE_SIDE_STYLE('',(#380));
#366=SURFACE_SIDE_STYLE('',(#381));
#367=SURFACE_SIDE_STYLE('',(#382));
#368=SURFACE_SIDE_STYLE('',(#383));
#369=SURFACE_SIDE_STYLE('',(#384));
#370=SURFACE_SIDE_STYLE('',(#385));
#371=SURFACE_SIDE_STYLE('',(#386));
#372=SURFACE_SIDE_STYLE('',(#387));
#373=SURFACE_SIDE_STYLE('',(#388));
#374=SURFACE_SIDE_STYLE('',(#389));
#375=SURFACE_SIDE_STYLE('',(#390));
#376=SURFACE_SIDE_STYLE('',(#391));
#377=SURFACE_STYLE_RENDERING_WITH_PROPERTIES(.CONSTANT_SHADING.,#418,(#378));
#378=SURFACE_STYLE_TRANSPARENT(0.5);
#379=SURFACE_STYLE_FILL_AREA(#392);
#380=SURFACE_STYLE_FILL_AREA(#393);
#381=SURFACE_STYLE_FILL_AREA(#394);
#382=SURFACE_STYLE_FILL_AREA(#395);
#383=SURFACE_STYLE_FILL_AREA(#396);
#384=SURFACE_STYLE_FILL_AREA(#397);
#385=SURFACE_STYLE_FILL_AREA(#398);
#386=SURFACE_STYLE_FILL_AREA(#399);
#387=SURFACE_STYLE_FILL_AREA(#400);
#388=SURFACE_STYLE_FILL_AREA(#401);
#389=SURFACE_STYLE_FILL_AREA(#402);
#390=SURFACE_STYLE_FILL_AREA(#403);
#391=SURFACE_STYLE_FILL_AREA(#404);
#392=FILL_AREA_STYLE('',(#405));
#393=FILL_AREA_STYLE('',(#406));
#394=FILL_AREA_STYLE('',(#407));
#395=FILL_AREA_STYLE('',(#408));
#396=FILL_AREA_STYLE('',(#409));
#397=FILL_AREA_STYLE('',(#410));
#398=FILL_AREA_STYLE('',(#411));
#399=FILL_AREA_STYLE('',(#412));
#400=FILL_AREA_STYLE('',(#413));
#401=FILL_AREA_STYLE('',(#414));
#402=FILL_AREA_STYLE('',(#415));
#403=FILL_AREA_STYLE('',(#416));
#404=FILL_AREA_STYLE('',(#417));
#405=FILL_AREA_STYLE_COLOUR('',#418);
#406=FILL_AREA_STYLE_COLOUR('',#18);
#407=FILL_AREA_STYLE_COLOUR('',#18);
#408=FILL_AREA_STYLE_COLOUR('',#18);
#409=FILL_AREA_STYLE_COLOUR('',#18);
#410=FILL_AREA_STYLE_COLOUR('',#19);
#411=FILL_AREA_STYLE_COLOUR('',#18);
#412=FILL_AREA_STYLE_COLOUR('',#18);
#413=FILL_AREA_STYLE_COLOUR('',#19);
#414=FILL_AREA_STYLE_COLOUR('',#18);
#415=FILL_AREA_STYLE_COLOUR('',#19);
#416=FILL_AREA_STYLE_COLOUR('',#19);
#417=FILL_AREA_STYLE_COLOUR('',#19);
#418=DRAUGHTING_PRE_DEFINED_COLOUR('white');
#419=MANIFOLD_SOLID_BREP('',#322);
#420=MANIFOLD_SOLID_BREP('',#323);
#421=MANIFOLD_SOLID_BREP('',#324);
#422=SHAPE_DEFINITION_REPRESENTATION(#639,#427);
#423=SHAPE_DEFINITION_REPRESENTATION(#638,#428);
#424=SHAPE_DEFINITION_REPRESENTATION(#642,#429);
#425=SHAPE_DEFINITION_REPRESENTATION(#641,#430);
#426=SHAPE_DEFINITION_REPRESENTATION(#644,#431);
#427=SHAPE_REPRESENTATION('maxSized_Square',(#432),#626);
#428=SHAPE_REPRESENTATION('1.6x0.8x0.8x0.4_maxSized',(#432,#439,#455),#625);
#429=SHAPE_REPRESENTATION('Contact_0.8x0.8x0.4',(#432),#628);
#430=SHAPE_REPRESENTATION('1.6x0.8x0.8x0.4',(#432,#446,#453,#454),#627);
#431=SHAPE_REPRESENTATION('Body_1.6x0.8x0.8x0.4',(#432),#629);
#432=AXIS2_PLACEMENT_3D('',#540,#456,#457);
#433=AXIS2_PLACEMENT_3D('',#541,#458,#459);
#434=AXIS2_PLACEMENT_3D('',#550,#464,#465);
#435=AXIS2_PLACEMENT_3D('',#556,#469,#470);
#436=AXIS2_PLACEMENT_3D('',#562,#474,#475);
#437=AXIS2_PLACEMENT_3D('',#565,#478,#479);
#438=AXIS2_PLACEMENT_3D('',#566,#480,#481);
#439=AXIS2_PLACEMENT_3D('',#567,#482,#483);
#440=AXIS2_PLACEMENT_3D('',#568,#484,#485);
#441=AXIS2_PLACEMENT_3D('',#577,#490,#491);
#442=AXIS2_PLACEMENT_3D('',#583,#495,#496);
#443=AXIS2_PLACEMENT_3D('',#589,#500,#501);
#444=AXIS2_PLACEMENT_3D('',#592,#504,#505);
#445=AXIS2_PLACEMENT_3D('',#593,#506,#507);
#446=AXIS2_PLACEMENT_3D('',#594,#508,#509);
#447=AXIS2_PLACEMENT_3D('',#595,#510,#511);
#448=AXIS2_PLACEMENT_3D('',#604,#516,#517);
#449=AXIS2_PLACEMENT_3D('',#610,#521,#522);
#450=AXIS2_PLACEMENT_3D('',#616,#526,#527);
#451=AXIS2_PLACEMENT_3D('',#619,#530,#531);
#452=AXIS2_PLACEMENT_3D('',#620,#532,#533);
#453=AXIS2_PLACEMENT_3D('',#621,#534,#535);
#454=AXIS2_PLACEMENT_3D('',#622,#536,#537);
#455=AXIS2_PLACEMENT_3D('',#623,#538,#539);
#456=DIRECTION('',(0.,0.,1.));
#457=DIRECTION('',(1.,0.,0.));
#458=DIRECTION('',(1.,0.,0.));
#459=DIRECTION('',(0.,0.,-1.));
#460=DIRECTION('',(0.,0.,-1.));
#461=DIRECTION('',(0.,1.,0.));
#462=DIRECTION('',(0.,0.,-1.));
#463=DIRECTION('',(0.,1.,0.));
#464=DIRECTION('',(-1.20466908053945E-16,0.,1.));
#465=DIRECTION('',(1.,0.,1.20466908053945E-16));
#466=DIRECTION('',(1.,0.,1.20466908053945E-16));
#467=DIRECTION('',(0.,1.,0.));
#468=DIRECTION('',(1.,0.,1.20466908053945E-16));
#469=DIRECTION('',(-1.,0.,0.));
#470=DIRECTION('',(0.,0.,1.));
#471=DIRECTION('',(0.,0.,1.));
#472=DIRECTION('',(0.,1.,0.));
#473=DIRECTION('',(0.,0.,1.));
#474=DIRECTION('',(-1.20466908053945E-16,0.,-1.));
#475=DIRECTION('',(-1.,0.,1.20466908053945E-16));
#476=DIRECTION('',(-1.,0.,1.20466908053945E-16));
#477=DIRECTION('',(-1.,0.,1.20466908053945E-16));
#478=DIRECTION('',(0.,-1.,0.));
#479=DIRECTION('',(0.,0.,-1.));
#480=DIRECTION('',(0.,-1.,0.));
#481=DIRECTION('',(0.,0.,-1.));
#482=DIRECTION('',(0.,0.,1.));
#483=DIRECTION('',(1.,0.,0.));
#484=DIRECTION('',(1.,0.,2.71050543121376E-16));
#485=DIRECTION('',(2.71050543121376E-16,0.,-1.));
#486=DIRECTION('',(2.71050543121376E-16,0.,-1.));
#487=DIRECTION('',(0.,1.,0.));
#488=DIRECTION('',(2.71050543121376E-16,0.,-1.));
#489=DIRECTION('',(0.,1.,0.));
#490=DIRECTION('',(1.35525271560688E-16,0.,-1.));
#491=DIRECTION('',(-1.,0.,-1.35525271560688E-16));
#492=DIRECTION('',(-1.,0.,-1.35525271560688E-16));
#493=DIRECTION('',(-1.,0.,-1.35525271560688E-16));
#494=DIRECTION('',(0.,1.,0.));
#495=DIRECTION('',(-1.,0.,-2.71050543121376E-16));
#496=DIRECTION('',(-2.71050543121376E-16,0.,1.));
#497=DIRECTION('',(-2.71050543121376E-16,0.,1.));
#498=DIRECTION('',(-2.71050543121376E-16,0.,1.));
#499=DIRECTION('',(0.,1.,0.));
#500=DIRECTION('',(-1.35525271560688E-16,0.,1.));
#501=DIRECTION('',(1.,0.,1.35525271560688E-16));
#502=DIRECTION('',(1.,0.,1.35525271560688E-16));
#503=DIRECTION('',(1.,0.,1.35525271560688E-16));
#504=DIRECTION('',(0.,1.,0.));
#505=DIRECTION('',(0.,0.,1.));
#506=DIRECTION('',(0.,1.,0.));
#507=DIRECTION('',(0.,0.,1.));
#508=DIRECTION('',(-1.0842021724855E-16,1.0842021724855E-16,1.));
#509=DIRECTION('',(1.17549435082229E-32,1.,-1.0842021724855E-16));
#510=DIRECTION('',(1.,0.,1.35525271560688E-16));
#511=DIRECTION('',(1.35525271560688E-16,0.,-1.));
#512=DIRECTION('',(1.35525271560688E-16,0.,-1.));
#513=DIRECTION('',(0.,1.,0.));
#514=DIRECTION('',(1.35525271560688E-16,0.,-1.));
#515=DIRECTION('',(0.,1.,0.));
#516=DIRECTION('',(1.35525271560688E-16,0.,-1.));
#517=DIRECTION('',(-1.,0.,-1.35525271560688E-16));
#518=DIRECTION('',(-1.,0.,-1.35525271560688E-16));
#519=DIRECTION('',(-1.,0.,-1.35525271560688E-16));
#520=DIRECTION('',(0.,1.,0.));
#521=DIRECTION('',(-1.,0.,-1.35525271560688E-16));
#522=DIRECTION('',(-1.35525271560688E-16,0.,1.));
#523=DIRECTION('',(-1.35525271560688E-16,0.,1.));
#524=DIRECTION('',(-1.35525271560688E-16,0.,1.));
#525=DIRECTION('',(0.,1.,0.));
#526=DIRECTION('',(-1.35525271560688E-16,0.,1.));
#527=DIRECTION('',(1.,0.,1.35525271560688E-16));
#528=DIRECTION('',(1.,0.,1.35525271560688E-16));
#529=DIRECTION('',(1.,0.,1.35525271560688E-16));
#530=DIRECTION('',(0.,1.,0.));
#531=DIRECTION('',(0.,0.,1.));
#532=DIRECTION('',(0.,1.,0.));
#533=DIRECTION('',(0.,0.,1.));
#534=DIRECTION('',(0.,0.,1.));
#535=DIRECTION('',(1.,0.,0.));
#536=DIRECTION('',(-3.25260651745651E-16,-1.0321604682062E-16,1.));
#537=DIRECTION('',(1.11022302462516E-16,-1.,-1.0321604682062E-16));
#538=DIRECTION('',(0.,0.,1.));
#539=DIRECTION('',(1.,0.,0.));
#540=CARTESIAN_POINT('',(0.,0.,0.));
#541=CARTESIAN_POINT('',(-0.9,-0.5,0.5));
#542=CARTESIAN_POINT('',(-0.9,0.5,0.5));
#543=CARTESIAN_POINT('',(-0.9,0.5,0.5));
#544=CARTESIAN_POINT('',(-0.9,0.5,-0.5));
#545=CARTESIAN_POINT('',(-0.9,-0.5,-0.5));
#546=CARTESIAN_POINT('',(-0.9,-0.5,-0.5));
#547=CARTESIAN_POINT('',(-0.9,-0.5,0.5));
#548=CARTESIAN_POINT('',(-0.9,-0.5,0.5));
#549=CARTESIAN_POINT('',(-0.9,-0.5,0.5));
#550=CARTESIAN_POINT('',(-0.9,-0.5,-0.5));
#551=CARTESIAN_POINT('',(-0.9,0.5,-0.5));
#552=CARTESIAN_POINT('',(0.9,0.5,-0.5));
#553=CARTESIAN_POINT('',(0.9,-0.5,-0.5));
#554=CARTESIAN_POINT('',(0.9,-0.5,-0.5));
#555=CARTESIAN_POINT('',(-0.9,-0.5,-0.5));
#556=CARTESIAN_POINT('',(0.9,-0.5,-0.5));
#557=CARTESIAN_POINT('',(0.9,0.5,-0.5));
#558=CARTESIAN_POINT('',(0.9,0.5,0.5));
#559=CARTESIAN_POINT('',(0.9,-0.5,0.5));
#560=CARTESIAN_POINT('',(0.9,-0.5,0.5));
#561=CARTESIAN_POINT('',(0.9,-0.5,-0.5));
#562=CARTESIAN_POINT('',(0.9,-0.5,0.5));
#563=CARTESIAN_POINT('',(0.9,0.5,0.5));
#564=CARTESIAN_POINT('',(0.9,-0.5,0.5));
#565=CARTESIAN_POINT('',(0.,-0.5,0.));
#566=CARTESIAN_POINT('',(0.,0.5,0.));
#567=CARTESIAN_POINT('',(0.,0.,0.));
#568=CARTESIAN_POINT('',(0.4,-0.2,0.4));
#569=CARTESIAN_POINT('',(0.4,0.2,0.4));
#570=CARTESIAN_POINT('',(0.4,0.2,0.4));
#571=CARTESIAN_POINT('',(0.4,0.2,-0.4));
#572=CARTESIAN_POINT('',(0.4,-0.2,0.4));
#573=CARTESIAN_POINT('',(0.4,-0.2,0.4));
#574=CARTESIAN_POINT('',(0.4,-0.2,0.4));
#575=CARTESIAN_POINT('',(0.4,-0.2,-0.4));
#576=CARTESIAN_POINT('',(0.4,-0.2,-0.4));
#577=CARTESIAN_POINT('',(0.4,-0.2,-0.4));
#578=CARTESIAN_POINT('',(0.4,0.2,-0.4));
#579=CARTESIAN_POINT('',(-0.4,0.2,-0.4));
#580=CARTESIAN_POINT('',(0.4,-0.2,-0.4));
#581=CARTESIAN_POINT('',(-0.4,-0.2,-0.4));
#582=CARTESIAN_POINT('',(-0.4,-0.2,-0.4));
#583=CARTESIAN_POINT('',(-0.4,-0.2,-0.4));
#584=CARTESIAN_POINT('',(-0.4,0.2,-0.4));
#585=CARTESIAN_POINT('',(-0.4,0.2,0.4));
#586=CARTESIAN_POINT('',(-0.4,-0.2,-0.4));
#587=CARTESIAN_POINT('',(-0.4,-0.2,0.4));
#588=CARTESIAN_POINT('',(-0.4,-0.2,0.4));
#589=CARTESIAN_POINT('',(-0.4,-0.2,0.4));
#590=CARTESIAN_POINT('',(-0.4,0.2,0.4));
#591=CARTESIAN_POINT('',(-0.4,-0.2,0.4));
#592=CARTESIAN_POINT('',(0.,-0.2,0.));
#593=CARTESIAN_POINT('',(0.,0.2,0.));
#594=CARTESIAN_POINT('',(-0.6,-5.42101086242752E-17,5.42101086242752E-17));
#595=CARTESIAN_POINT('',(0.4,-0.4,0.4));
#596=CARTESIAN_POINT('',(0.4,0.4,0.4));
#597=CARTESIAN_POINT('',(0.4,0.4,0.4));
#598=CARTESIAN_POINT('',(0.4,0.4,-0.4));
#599=CARTESIAN_POINT('',(0.4,-0.4,0.4));
#600=CARTESIAN_POINT('',(0.4,-0.4,0.4));
#601=CARTESIAN_POINT('',(0.4,-0.4,0.4));
#602=CARTESIAN_POINT('',(0.4,-0.4,-0.4));
#603=CARTESIAN_POINT('',(0.4,-0.4,-0.4));
#604=CARTESIAN_POINT('',(0.4,-0.4,-0.4));
#605=CARTESIAN_POINT('',(0.4,0.4,-0.4));
#606=CARTESIAN_POINT('',(-0.4,0.4,-0.4));
#607=CARTESIAN_POINT('',(0.4,-0.4,-0.4));
#608=CARTESIAN_POINT('',(-0.4,-0.4,-0.4));
#609=CARTESIAN_POINT('',(-0.4,-0.4,-0.4));
#610=CARTESIAN_POINT('',(-0.4,-0.4,-0.4));
#611=CARTESIAN_POINT('',(-0.4,0.4,-0.4));
#612=CARTESIAN_POINT('',(-0.4,0.4,0.4));
#613=CARTESIAN_POINT('',(-0.4,-0.4,-0.4));
#614=CARTESIAN_POINT('',(-0.4,-0.4,0.4));
#615=CARTESIAN_POINT('',(-0.4,-0.4,0.4));
#616=CARTESIAN_POINT('',(-0.4,-0.4,0.4));
#617=CARTESIAN_POINT('',(-0.4,0.4,0.4));
#618=CARTESIAN_POINT('',(-0.4,-0.4,0.4));
#619=CARTESIAN_POINT('',(0.,-0.4,0.));
#620=CARTESIAN_POINT('',(0.,0.4,0.));
#621=CARTESIAN_POINT('',(0.,0.,0.));
#622=CARTESIAN_POINT('',(0.6,-3.25260651745651E-16,2.16840434497101E-16));
#623=CARTESIAN_POINT('',(0.,-1.57209315010398E-15,-0.0999999999999987));
#624=MECHANICAL_DESIGN_GEOMETRIC_PRESENTATION_REPRESENTATION('',(#325,#326,
#327,#328,#329,#330,#331,#332,#333,#334,#335,#336,#337),#625);
#625=(
GEOMETRIC_REPRESENTATION_CONTEXT(3)
GLOBAL_UNCERTAINTY_ASSIGNED_CONTEXT((#630))
GLOBAL_UNIT_ASSIGNED_CONTEXT((#637,#636,#635))
REPRESENTATION_CONTEXT('1.6x0.8x0.8x0.4_maxSized',
'TOP_LEVEL_ASSEMBLY_PART')
);
#626=(
GEOMETRIC_REPRESENTATION_CONTEXT(3)
GLOBAL_UNCERTAINTY_ASSIGNED_CONTEXT((#631))
GLOBAL_UNIT_ASSIGNED_CONTEXT((#637,#636,#635))
REPRESENTATION_CONTEXT('maxSized_Square','COMPONENT_PART')
);
#627=(
GEOMETRIC_REPRESENTATION_CONTEXT(3)
GLOBAL_UNCERTAINTY_ASSIGNED_CONTEXT((#632))
GLOBAL_UNIT_ASSIGNED_CONTEXT((#637,#636,#635))
REPRESENTATION_CONTEXT('1.6x0.8x0.8x0.4','COMPONENT_PART')
);
#628=(
GEOMETRIC_REPRESENTATION_CONTEXT(3)
GLOBAL_UNCERTAINTY_ASSIGNED_CONTEXT((#633))
GLOBAL_UNIT_ASSIGNED_CONTEXT((#637,#636,#635))
REPRESENTATION_CONTEXT('Contact_0.8x0.8x0.4','COMPONENT_PART')
);
#629=(
GEOMETRIC_REPRESENTATION_CONTEXT(3)
GLOBAL_UNCERTAINTY_ASSIGNED_CONTEXT((#634))
GLOBAL_UNIT_ASSIGNED_CONTEXT((#637,#636,#635))
REPRESENTATION_CONTEXT('Body_1.6x0.8x0.8x0.4','COMPONENT_PART')
);
#630=UNCERTAINTY_MEASURE_WITH_UNIT(LENGTH_MEASURE(0.005),#637,
'DISTANCE_ACCURACY_VALUE','Maximum Tolerance applied to model');
#631=UNCERTAINTY_MEASURE_WITH_UNIT(LENGTH_MEASURE(0.005),#637,
'DISTANCE_ACCURACY_VALUE','Maximum Tolerance applied to model');
#632=UNCERTAINTY_MEASURE_WITH_UNIT(LENGTH_MEASURE(0.005),#637,
'DISTANCE_ACCURACY_VALUE','Maximum Tolerance applied to model');
#633=UNCERTAINTY_MEASURE_WITH_UNIT(LENGTH_MEASURE(0.005),#637,
'DISTANCE_ACCURACY_VALUE','Maximum Tolerance applied to model');
#634=UNCERTAINTY_MEASURE_WITH_UNIT(LENGTH_MEASURE(0.005),#637,
'DISTANCE_ACCURACY_VALUE','Maximum Tolerance applied to model');
#635=(
NAMED_UNIT(*)
SI_UNIT($,.STERADIAN.)
SOLID_ANGLE_UNIT()
);
#636=(
NAMED_UNIT(*)
PLANE_ANGLE_UNIT()
SI_UNIT($,.RADIAN.)
);
#637=(
LENGTH_UNIT()
NAMED_UNIT(*)
SI_UNIT(.MILLI.,.METRE.)
);
#638=PRODUCT_DEFINITION_SHAPE('','',#648);
#639=PRODUCT_DEFINITION_SHAPE('','',#649);
#640=PRODUCT_DEFINITION_SHAPE(' ','NAUO PRDDFN',#25);
#641=PRODUCT_DEFINITION_SHAPE('','',#650);
#642=PRODUCT_DEFINITION_SHAPE('','',#651);
#643=PRODUCT_DEFINITION_SHAPE(' ','NAUO PRDDFN',#26);
#644=PRODUCT_DEFINITION_SHAPE('','',#652);
#645=PRODUCT_DEFINITION_SHAPE(' ','NAUO PRDDFN',#27);
#646=PRODUCT_DEFINITION_SHAPE(' ','NAUO PRDDFN',#28);
#647=PRODUCT_DEFINITION_SHAPE(' ','NAUO PRDDFN',#29);
#648=PRODUCT_DEFINITION('','',#658,#653);
#649=PRODUCT_DEFINITION('','',#659,#654);
#650=PRODUCT_DEFINITION('','',#660,#655);
#651=PRODUCT_DEFINITION('','',#661,#656);
#652=PRODUCT_DEFINITION('','',#662,#657);
#653=PRODUCT_DEFINITION_CONTEXT('',#684,'design');
#654=PRODUCT_DEFINITION_CONTEXT('',#684,'design');
#655=PRODUCT_DEFINITION_CONTEXT('',#684,'design');
#656=PRODUCT_DEFINITION_CONTEXT('',#684,'design');
#657=PRODUCT_DEFINITION_CONTEXT('',#684,'design');
#658=PRODUCT_DEFINITION_FORMATION_WITH_SPECIFIED_SOURCE('','',#668,
 .NOT_KNOWN.);
#659=PRODUCT_DEFINITION_FORMATION_WITH_SPECIFIED_SOURCE('','',#669,
 .NOT_KNOWN.);
#660=PRODUCT_DEFINITION_FORMATION_WITH_SPECIFIED_SOURCE('','',#670,
 .NOT_KNOWN.);
#661=PRODUCT_DEFINITION_FORMATION_WITH_SPECIFIED_SOURCE('','',#671,
 .NOT_KNOWN.);
#662=PRODUCT_DEFINITION_FORMATION_WITH_SPECIFIED_SOURCE('','',#672,
 .NOT_KNOWN.);
#663=PRODUCT_RELATED_PRODUCT_CATEGORY('','',(#668));
#664=PRODUCT_RELATED_PRODUCT_CATEGORY('','',(#669));
#665=PRODUCT_RELATED_PRODUCT_CATEGORY('','',(#670));
#666=PRODUCT_RELATED_PRODUCT_CATEGORY('','',(#671));
#667=PRODUCT_RELATED_PRODUCT_CATEGORY('','',(#672));
#668=PRODUCT('1.6x0.8x0.8x0.4_maxSized','1.6x0.8x0.8x0.4_maxSized',
'1.6x0.8x0.8x0.4_maxSized',(#678));
#669=PRODUCT('maxSized_Square','maxSized_Square','maxSized_Square',(#679));
#670=PRODUCT('1.6x0.8x0.8x0.4','1.6x0.8x0.8x0.4','1.6x0.8x0.8x0.4',(#680));
#671=PRODUCT('Contact_0.8x0.8x0.4','Contact_0.8x0.8x0.4',
'Contact_0.8x0.8x0.4',(#681));
#672=PRODUCT('Body_1.6x0.8x0.8x0.4','Body_1.6x0.8x0.8x0.4',
'Body_1.6x0.8x0.8x0.4',(#682));
#673=PRODUCT_CATEGORY('','');
#674=PRODUCT_CATEGORY('','');
#675=PRODUCT_CATEGORY('','');
#676=PRODUCT_CATEGORY('','');
#677=PRODUCT_CATEGORY('','');
#678=PRODUCT_CONTEXT('',#684,'mechanical');
#679=PRODUCT_CONTEXT('',#684,'mechanical');
#680=PRODUCT_CONTEXT('',#684,'mechanical');
#681=PRODUCT_CONTEXT('',#684,'mechanical');
#682=PRODUCT_CONTEXT('',#684,'mechanical');
#683=APPLICATION_PROTOCOL_DEFINITION('international standard',
'automotive_design',2010,#684);
#684=APPLICATION_CONTEXT(
'core data for automotive mechanical design processes');
ENDSEC;
END-ISO-10303-21;
