ISO-10303-21;
HEADER;
/* Generated by software containing ST-Developer
 * from STEP Tools, Inc. (www.steptools.com) 
 */
/* OPTION: strings as raw bytes, not using required /X/ escapes */

FILE_DESCRIPTION(
/* description */ ('Unknown'),
/* implementation_level */ '2;1');

FILE_NAME(
/* name */ '4040220',
/* time_stamp */ '2023-11-07T14:22:56+01:00',
/* author */ ('Unknown'),
/* organization */ ('Unknown'),
/* preprocessor_version */ 'ST-DEVELOPER v16.7',
/* originating_system */ 'Solid Edge',
/* authorisation */ 'Unknown');

FILE_SCHEMA (('AUTOMOTIVE_DESIGN {1 0 10303 214 3 1 1}'));
ENDSEC;

DATA;
#10=PROPERTY_DEFINITION_REPRESENTATION(#14,#12);
#11=PROPERTY_DEFINITION_REPRESENTATION(#15,#13);
#12=REPRESENTATION('',(#16),#441);
#13=REPRESENTATION('',(#17),#441);
#14=PROPERTY_DEFINITION('pmi validation property','',#450);
#15=PROPERTY_DEFINITION('pmi validation property','',#450);
#16=VALUE_REPRESENTATION_ITEM('number of annotations',COUNT_MEASURE(0.));
#17=VALUE_REPRESENTATION_ITEM('number of views',COUNT_MEASURE(0.));
#18=CONTEXT_DEPENDENT_SHAPE_REPRESENTATION(#24,#452);
#19=CONTEXT_DEPENDENT_SHAPE_REPRESENTATION(#25,#454);
#20=CONTEXT_DEPENDENT_SHAPE_REPRESENTATION(#26,#455);
#21=NEXT_ASSEMBLY_USAGE_OCCURRENCE('Fiberglass','Fiberglass',
'Fiberglass',#456,#457,'');
#22=NEXT_ASSEMBLY_USAGE_OCCURRENCE('Silicone','Silicone','Silicone',#456,
#458,'');
#23=NEXT_ASSEMBLY_USAGE_OCCURRENCE('Silicone','Silicone','Silicone',#456,
#458,'');
#24=(
REPRESENTATION_RELATIONSHIP(' ',' ',#281,#282)
REPRESENTATION_RELATIONSHIP_WITH_TRANSFORMATION(#27)
SHAPE_REPRESENTATION_RELATIONSHIP()
);
#25=(
REPRESENTATION_RELATIONSHIP(' ',' ',#283,#282)
REPRESENTATION_RELATIONSHIP_WITH_TRANSFORMATION(#28)
SHAPE_REPRESENTATION_RELATIONSHIP()
);
#26=(
REPRESENTATION_RELATIONSHIP(' ',' ',#283,#282)
REPRESENTATION_RELATIONSHIP_WITH_TRANSFORMATION(#29)
SHAPE_REPRESENTATION_RELATIONSHIP()
);
#27=ITEM_DEFINED_TRANSFORMATION(' ',' ',#284,#294);
#28=ITEM_DEFINED_TRANSFORMATION(' ',' ',#284,#304);
#29=ITEM_DEFINED_TRANSFORMATION(' ',' ',#284,#305);
#30=SHAPE_REPRESENTATION_RELATIONSHIP('','',#281,#32);
#31=SHAPE_REPRESENTATION_RELATIONSHIP('','',#283,#33);
#32=ADVANCED_BREP_SHAPE_REPRESENTATION('',(#276),#442);
#33=ADVANCED_BREP_SHAPE_REPRESENTATION('',(#277),#443);
#34=CYLINDRICAL_SURFACE('',#293,1.585);
#35=CYLINDRICAL_SURFACE('',#303,1.585);
#36=CIRCLE('',#290,1.585);
#37=CIRCLE('',#292,1.585);
#38=CIRCLE('',#300,1.585);
#39=CIRCLE('',#302,1.585);
#40=ORIENTED_EDGE('',*,*,#96,.F.);
#41=ORIENTED_EDGE('',*,*,#97,.F.);
#42=ORIENTED_EDGE('',*,*,#98,.T.);
#43=ORIENTED_EDGE('',*,*,#99,.T.);
#44=ORIENTED_EDGE('',*,*,#100,.F.);
#45=ORIENTED_EDGE('',*,*,#99,.F.);
#46=ORIENTED_EDGE('',*,*,#101,.T.);
#47=ORIENTED_EDGE('',*,*,#102,.T.);
#48=ORIENTED_EDGE('',*,*,#103,.F.);
#49=ORIENTED_EDGE('',*,*,#102,.F.);
#50=ORIENTED_EDGE('',*,*,#104,.T.);
#51=ORIENTED_EDGE('',*,*,#105,.T.);
#52=ORIENTED_EDGE('',*,*,#106,.F.);
#53=ORIENTED_EDGE('',*,*,#105,.F.);
#54=ORIENTED_EDGE('',*,*,#107,.T.);
#55=ORIENTED_EDGE('',*,*,#97,.T.);
#56=ORIENTED_EDGE('',*,*,#108,.F.);
#57=ORIENTED_EDGE('',*,*,#98,.F.);
#58=ORIENTED_EDGE('',*,*,#107,.F.);
#59=ORIENTED_EDGE('',*,*,#104,.F.);
#60=ORIENTED_EDGE('',*,*,#101,.F.);
#61=ORIENTED_EDGE('',*,*,#109,.T.);
#62=ORIENTED_EDGE('',*,*,#96,.T.);
#63=ORIENTED_EDGE('',*,*,#100,.T.);
#64=ORIENTED_EDGE('',*,*,#103,.T.);
#65=ORIENTED_EDGE('',*,*,#106,.T.);
#66=ORIENTED_EDGE('',*,*,#109,.F.);
#67=ORIENTED_EDGE('',*,*,#108,.T.);
#68=ORIENTED_EDGE('',*,*,#110,.F.);
#69=ORIENTED_EDGE('',*,*,#111,.F.);
#70=ORIENTED_EDGE('',*,*,#112,.T.);
#71=ORIENTED_EDGE('',*,*,#113,.T.);
#72=ORIENTED_EDGE('',*,*,#114,.F.);
#73=ORIENTED_EDGE('',*,*,#113,.F.);
#74=ORIENTED_EDGE('',*,*,#115,.T.);
#75=ORIENTED_EDGE('',*,*,#116,.T.);
#76=ORIENTED_EDGE('',*,*,#117,.F.);
#77=ORIENTED_EDGE('',*,*,#116,.F.);
#78=ORIENTED_EDGE('',*,*,#118,.T.);
#79=ORIENTED_EDGE('',*,*,#119,.T.);
#80=ORIENTED_EDGE('',*,*,#120,.F.);
#81=ORIENTED_EDGE('',*,*,#119,.F.);
#82=ORIENTED_EDGE('',*,*,#121,.T.);
#83=ORIENTED_EDGE('',*,*,#111,.T.);
#84=ORIENTED_EDGE('',*,*,#122,.F.);
#85=ORIENTED_EDGE('',*,*,#112,.F.);
#86=ORIENTED_EDGE('',*,*,#121,.F.);
#87=ORIENTED_EDGE('',*,*,#118,.F.);
#88=ORIENTED_EDGE('',*,*,#115,.F.);
#89=ORIENTED_EDGE('',*,*,#123,.T.);
#90=ORIENTED_EDGE('',*,*,#110,.T.);
#91=ORIENTED_EDGE('',*,*,#114,.T.);
#92=ORIENTED_EDGE('',*,*,#117,.T.);
#93=ORIENTED_EDGE('',*,*,#120,.T.);
#94=ORIENTED_EDGE('',*,*,#123,.F.);
#95=ORIENTED_EDGE('',*,*,#122,.T.);
#96=EDGE_CURVE('',#124,#125,#144,.T.);
#97=EDGE_CURVE('',#126,#124,#145,.T.);
#98=EDGE_CURVE('',#126,#127,#146,.T.);
#99=EDGE_CURVE('',#127,#125,#147,.T.);
#100=EDGE_CURVE('',#125,#128,#148,.T.);
#101=EDGE_CURVE('',#127,#129,#149,.T.);
#102=EDGE_CURVE('',#129,#128,#150,.T.);
#103=EDGE_CURVE('',#128,#130,#151,.T.);
#104=EDGE_CURVE('',#129,#131,#152,.T.);
#105=EDGE_CURVE('',#131,#130,#153,.T.);
#106=EDGE_CURVE('',#130,#124,#154,.T.);
#107=EDGE_CURVE('',#131,#126,#155,.T.);
#108=EDGE_CURVE('',#132,#132,#36,.F.);
#109=EDGE_CURVE('',#133,#133,#37,.T.);
#110=EDGE_CURVE('',#134,#135,#156,.T.);
#111=EDGE_CURVE('',#136,#134,#157,.T.);
#112=EDGE_CURVE('',#136,#137,#158,.T.);
#113=EDGE_CURVE('',#137,#135,#159,.T.);
#114=EDGE_CURVE('',#135,#138,#160,.T.);
#115=EDGE_CURVE('',#137,#139,#161,.T.);
#116=EDGE_CURVE('',#139,#138,#162,.T.);
#117=EDGE_CURVE('',#138,#140,#163,.T.);
#118=EDGE_CURVE('',#139,#141,#164,.T.);
#119=EDGE_CURVE('',#141,#140,#165,.T.);
#120=EDGE_CURVE('',#140,#134,#166,.T.);
#121=EDGE_CURVE('',#141,#136,#167,.T.);
#122=EDGE_CURVE('',#142,#142,#38,.F.);
#123=EDGE_CURVE('',#143,#143,#39,.T.);
#124=VERTEX_POINT('',#377);
#125=VERTEX_POINT('',#378);
#126=VERTEX_POINT('',#380);
#127=VERTEX_POINT('',#382);
#128=VERTEX_POINT('',#386);
#129=VERTEX_POINT('',#388);
#130=VERTEX_POINT('',#392);
#131=VERTEX_POINT('',#394);
#132=VERTEX_POINT('',#401);
#133=VERTEX_POINT('',#404);
#134=VERTEX_POINT('',#409);
#135=VERTEX_POINT('',#410);
#136=VERTEX_POINT('',#412);
#137=VERTEX_POINT('',#414);
#138=VERTEX_POINT('',#418);
#139=VERTEX_POINT('',#420);
#140=VERTEX_POINT('',#424);
#141=VERTEX_POINT('',#426);
#142=VERTEX_POINT('',#433);
#143=VERTEX_POINT('',#436);
#144=LINE('',#376,#168);
#145=LINE('',#379,#169);
#146=LINE('',#381,#170);
#147=LINE('',#383,#171);
#148=LINE('',#385,#172);
#149=LINE('',#387,#173);
#150=LINE('',#389,#174);
#151=LINE('',#391,#175);
#152=LINE('',#393,#176);
#153=LINE('',#395,#177);
#154=LINE('',#397,#178);
#155=LINE('',#398,#179);
#156=LINE('',#408,#180);
#157=LINE('',#411,#181);
#158=LINE('',#413,#182);
#159=LINE('',#415,#183);
#160=LINE('',#417,#184);
#161=LINE('',#419,#185);
#162=LINE('',#421,#186);
#163=LINE('',#423,#187);
#164=LINE('',#425,#188);
#165=LINE('',#427,#189);
#166=LINE('',#429,#190);
#167=LINE('',#430,#191);
#168=VECTOR('',#310,1000.);
#169=VECTOR('',#311,1000.);
#170=VECTOR('',#312,1000.);
#171=VECTOR('',#313,1000.);
#172=VECTOR('',#316,1000.);
#173=VECTOR('',#317,1000.);
#174=VECTOR('',#318,1000.);
#175=VECTOR('',#321,1000.);
#176=VECTOR('',#322,1000.);
#177=VECTOR('',#323,1000.);
#178=VECTOR('',#326,1000.);
#179=VECTOR('',#327,1000.);
#180=VECTOR('',#342,1000.);
#181=VECTOR('',#343,1000.);
#182=VECTOR('',#344,1000.);
#183=VECTOR('',#345,1000.);
#184=VECTOR('',#348,1000.);
#185=VECTOR('',#349,1000.);
#186=VECTOR('',#350,1000.);
#187=VECTOR('',#353,1000.);
#188=VECTOR('',#354,1000.);
#189=VECTOR('',#355,1000.);
#190=VECTOR('',#358,1000.);
#191=VECTOR('',#359,1000.);
#192=EDGE_LOOP('',(#40,#41,#42,#43));
#193=EDGE_LOOP('',(#44,#45,#46,#47));
#194=EDGE_LOOP('',(#48,#49,#50,#51));
#195=EDGE_LOOP('',(#52,#53,#54,#55));
#196=EDGE_LOOP('',(#56));
#197=EDGE_LOOP('',(#57,#58,#59,#60));
#198=EDGE_LOOP('',(#61));
#199=EDGE_LOOP('',(#62,#63,#64,#65));
#200=EDGE_LOOP('',(#66));
#201=EDGE_LOOP('',(#67));
#202=EDGE_LOOP('',(#68,#69,#70,#71));
#203=EDGE_LOOP('',(#72,#73,#74,#75));
#204=EDGE_LOOP('',(#76,#77,#78,#79));
#205=EDGE_LOOP('',(#80,#81,#82,#83));
#206=EDGE_LOOP('',(#84));
#207=EDGE_LOOP('',(#85,#86,#87,#88));
#208=EDGE_LOOP('',(#89));
#209=EDGE_LOOP('',(#90,#91,#92,#93));
#210=EDGE_LOOP('',(#94));
#211=EDGE_LOOP('',(#95));
#212=FACE_BOUND('',#192,.T.);
#213=FACE_BOUND('',#193,.T.);
#214=FACE_BOUND('',#194,.T.);
#215=FACE_BOUND('',#195,.T.);
#216=FACE_BOUND('',#196,.T.);
#217=FACE_BOUND('',#197,.T.);
#218=FACE_BOUND('',#198,.T.);
#219=FACE_BOUND('',#199,.T.);
#220=FACE_BOUND('',#200,.T.);
#221=FACE_BOUND('',#201,.T.);
#222=FACE_BOUND('',#202,.T.);
#223=FACE_BOUND('',#203,.T.);
#224=FACE_BOUND('',#204,.T.);
#225=FACE_BOUND('',#205,.T.);
#226=FACE_BOUND('',#206,.T.);
#227=FACE_BOUND('',#207,.T.);
#228=FACE_BOUND('',#208,.T.);
#229=FACE_BOUND('',#209,.T.);
#230=FACE_BOUND('',#210,.T.);
#231=FACE_BOUND('',#211,.T.);
#232=PLANE('',#285);
#233=PLANE('',#286);
#234=PLANE('',#287);
#235=PLANE('',#288);
#236=PLANE('',#289);
#237=PLANE('',#291);
#238=PLANE('',#295);
#239=PLANE('',#296);
#240=PLANE('',#297);
#241=PLANE('',#298);
#242=PLANE('',#299);
#243=PLANE('',#301);
#244=ADVANCED_FACE('',(#212),#232,.T.);
#245=ADVANCED_FACE('',(#213),#233,.T.);
#246=ADVANCED_FACE('',(#214),#234,.T.);
#247=ADVANCED_FACE('',(#215),#235,.T.);
#248=ADVANCED_FACE('',(#216,#217),#236,.F.);
#249=ADVANCED_FACE('',(#218,#219),#237,.T.);
#250=ADVANCED_FACE('',(#220,#221),#34,.F.);
#251=ADVANCED_FACE('',(#222),#238,.T.);
#252=ADVANCED_FACE('',(#223),#239,.T.);
#253=ADVANCED_FACE('',(#224),#240,.T.);
#254=ADVANCED_FACE('',(#225),#241,.T.);
#255=ADVANCED_FACE('',(#226,#227),#242,.F.);
#256=ADVANCED_FACE('',(#228,#229),#243,.T.);
#257=ADVANCED_FACE('',(#230,#231),#35,.F.);
#258=CLOSED_SHELL('',(#244,#245,#246,#247,#248,#249,#250));
#259=CLOSED_SHELL('',(#251,#252,#253,#254,#255,#256,#257));
#260=STYLED_ITEM('',(#262),#276);
#261=STYLED_ITEM('',(#263),#277);
#262=PRESENTATION_STYLE_ASSIGNMENT((#264));
#263=PRESENTATION_STYLE_ASSIGNMENT((#265));
#264=SURFACE_STYLE_USAGE(.BOTH.,#266);
#265=SURFACE_STYLE_USAGE(.BOTH.,#267);
#266=SURFACE_SIDE_STYLE('',(#268));
#267=SURFACE_SIDE_STYLE('',(#269));
#268=SURFACE_STYLE_FILL_AREA(#270);
#269=SURFACE_STYLE_FILL_AREA(#271);
#270=FILL_AREA_STYLE('',(#272));
#271=FILL_AREA_STYLE('',(#273));
#272=FILL_AREA_STYLE_COLOUR('',#274);
#273=FILL_AREA_STYLE_COLOUR('',#275);
#274=COLOUR_RGB('',0.200000002980232,0.200000002980232,0.200000002980232);
#275=COLOUR_RGB('',0.506983280181885,0.531564235687256,0.550000011920929);
#276=MANIFOLD_SOLID_BREP('',#258);
#277=MANIFOLD_SOLID_BREP('',#259);
#278=SHAPE_DEFINITION_REPRESENTATION(#451,#281);
#279=SHAPE_DEFINITION_REPRESENTATION(#450,#282);
#280=SHAPE_DEFINITION_REPRESENTATION(#453,#283);
#281=SHAPE_REPRESENTATION('Fiberglass',(#284),#442);
#282=SHAPE_REPRESENTATION('4040220',(#284,#294,#304,#305),#441);
#283=SHAPE_REPRESENTATION('Silicone',(#284),#443);
#284=AXIS2_PLACEMENT_3D('',#374,#306,#307);
#285=AXIS2_PLACEMENT_3D('',#375,#308,#309);
#286=AXIS2_PLACEMENT_3D('',#384,#314,#315);
#287=AXIS2_PLACEMENT_3D('',#390,#319,#320);
#288=AXIS2_PLACEMENT_3D('',#396,#324,#325);
#289=AXIS2_PLACEMENT_3D('',#399,#328,#329);
#290=AXIS2_PLACEMENT_3D('',#400,#330,#331);
#291=AXIS2_PLACEMENT_3D('',#402,#332,#333);
#292=AXIS2_PLACEMENT_3D('',#403,#334,#335);
#293=AXIS2_PLACEMENT_3D('',#405,#336,#337);
#294=AXIS2_PLACEMENT_3D('',#406,#338,#339);
#295=AXIS2_PLACEMENT_3D('',#407,#340,#341);
#296=AXIS2_PLACEMENT_3D('',#416,#346,#347);
#297=AXIS2_PLACEMENT_3D('',#422,#351,#352);
#298=AXIS2_PLACEMENT_3D('',#428,#356,#357);
#299=AXIS2_PLACEMENT_3D('',#431,#360,#361);
#300=AXIS2_PLACEMENT_3D('',#432,#362,#363);
#301=AXIS2_PLACEMENT_3D('',#434,#364,#365);
#302=AXIS2_PLACEMENT_3D('',#435,#366,#367);
#303=AXIS2_PLACEMENT_3D('',#437,#368,#369);
#304=AXIS2_PLACEMENT_3D('',#438,#370,#371);
#305=AXIS2_PLACEMENT_3D('',#439,#372,#373);
#306=DIRECTION('',(0.,0.,1.));
#307=DIRECTION('',(1.,0.,0.));
#308=DIRECTION('',(-1.,0.,0.));
#309=DIRECTION('',(0.,0.,1.));
#310=DIRECTION('',(0.,0.,-1.));
#311=DIRECTION('',(0.,-1.,0.));
#312=DIRECTION('',(0.,0.,-1.));
#313=DIRECTION('',(0.,-1.,0.));
#314=DIRECTION('',(0.,0.,-1.));
#315=DIRECTION('',(-1.,0.,0.));
#316=DIRECTION('',(1.,0.,0.));
#317=DIRECTION('',(1.,0.,0.));
#318=DIRECTION('',(0.,-1.,0.));
#319=DIRECTION('',(1.,0.,0.));
#320=DIRECTION('',(0.,0.,-1.));
#321=DIRECTION('',(0.,0.,1.));
#322=DIRECTION('',(0.,0.,1.));
#323=DIRECTION('',(0.,-1.,0.));
#324=DIRECTION('',(0.,0.,1.));
#325=DIRECTION('',(1.,0.,0.));
#326=DIRECTION('',(-1.,0.,0.));
#327=DIRECTION('',(-1.,0.,0.));
#328=DIRECTION('',(0.,-1.,0.));
#329=DIRECTION('',(0.,0.,-1.));
#330=DIRECTION('',(0.,-1.,0.));
#331=DIRECTION('',(0.,0.,-1.));
#332=DIRECTION('',(0.,-1.,0.));
#333=DIRECTION('',(0.,0.,-1.));
#334=DIRECTION('',(0.,1.,0.));
#335=DIRECTION('',(1.,0.,0.));
#336=DIRECTION('',(0.,-1.,0.));
#337=DIRECTION('',(0.,0.,-1.));
#338=DIRECTION('',(0.,0.,1.));
#339=DIRECTION('',(1.,0.,0.));
#340=DIRECTION('',(-1.,0.,0.));
#341=DIRECTION('',(0.,0.,1.));
#342=DIRECTION('',(0.,0.,-1.));
#343=DIRECTION('',(0.,-1.,0.));
#344=DIRECTION('',(0.,0.,-1.));
#345=DIRECTION('',(0.,-1.,0.));
#346=DIRECTION('',(0.,0.,-1.));
#347=DIRECTION('',(-1.,0.,0.));
#348=DIRECTION('',(1.,0.,0.));
#349=DIRECTION('',(1.,0.,0.));
#350=DIRECTION('',(0.,-1.,0.));
#351=DIRECTION('',(1.,0.,0.));
#352=DIRECTION('',(0.,0.,-1.));
#353=DIRECTION('',(0.,0.,1.));
#354=DIRECTION('',(0.,0.,1.));
#355=DIRECTION('',(0.,-1.,0.));
#356=DIRECTION('',(0.,0.,1.));
#357=DIRECTION('',(1.,0.,0.));
#358=DIRECTION('',(-1.,0.,0.));
#359=DIRECTION('',(-1.,0.,0.));
#360=DIRECTION('',(0.,-1.,0.));
#361=DIRECTION('',(0.,0.,-1.));
#362=DIRECTION('',(0.,-1.,0.));
#363=DIRECTION('',(0.,0.,-1.));
#364=DIRECTION('',(0.,-1.,0.));
#365=DIRECTION('',(0.,0.,-1.));
#366=DIRECTION('',(0.,1.,0.));
#367=DIRECTION('',(1.,0.,0.));
#368=DIRECTION('',(0.,-1.,0.));
#369=DIRECTION('',(0.,0.,-1.));
#370=DIRECTION('',(0.,0.,1.));
#371=DIRECTION('',(1.,0.,0.));
#372=DIRECTION('',(0.,0.,1.));
#373=DIRECTION('',(1.,0.,0.));
#374=CARTESIAN_POINT('',(0.,0.,0.));
#375=CARTESIAN_POINT('',(-9.52499999999999,0.03,6.35));
#376=CARTESIAN_POINT('',(-9.52499999999999,0.,6.35));
#377=CARTESIAN_POINT('',(-9.52499999999999,0.,6.35));
#378=CARTESIAN_POINT('',(-9.52499999999999,0.,-6.35));
#379=CARTESIAN_POINT('',(-9.52499999999999,0.03,6.35));
#380=CARTESIAN_POINT('',(-9.52499999999999,0.03,6.35));
#381=CARTESIAN_POINT('',(-9.52499999999999,0.03,6.35));
#382=CARTESIAN_POINT('',(-9.52499999999999,0.03,-6.35));
#383=CARTESIAN_POINT('',(-9.52499999999999,0.03,-6.35));
#384=CARTESIAN_POINT('',(-9.52499999999999,0.03,-6.35));
#385=CARTESIAN_POINT('',(-9.52499999999999,0.,-6.35));
#386=CARTESIAN_POINT('',(9.52499999999999,0.,-6.35));
#387=CARTESIAN_POINT('',(-9.52499999999999,0.03,-6.35));
#388=CARTESIAN_POINT('',(9.52499999999999,0.03,-6.35));
#389=CARTESIAN_POINT('',(9.52499999999999,0.03,-6.35));
#390=CARTESIAN_POINT('',(9.52499999999999,0.03,-6.35));
#391=CARTESIAN_POINT('',(9.52499999999999,0.,-6.35));
#392=CARTESIAN_POINT('',(9.52499999999999,0.,6.35));
#393=CARTESIAN_POINT('',(9.52499999999999,0.03,-6.35));
#394=CARTESIAN_POINT('',(9.52499999999999,0.03,6.35));
#395=CARTESIAN_POINT('',(9.52499999999999,0.03,6.35));
#396=CARTESIAN_POINT('',(9.52499999999999,0.03,6.35));
#397=CARTESIAN_POINT('',(9.52499999999999,0.,6.35));
#398=CARTESIAN_POINT('',(9.52499999999999,0.03,6.35));
#399=CARTESIAN_POINT('',(0.,0.03,0.));
#400=CARTESIAN_POINT('',(-4.77499999999999,0.0300000000000005,-5.8476884659286E-16));
#401=CARTESIAN_POINT('',(-4.77499999999999,0.0300000000000005,-1.585));
#402=CARTESIAN_POINT('',(0.,0.,0.));
#403=CARTESIAN_POINT('',(-4.77499999999999,0.,-5.8476884659286E-16));
#404=CARTESIAN_POINT('',(-3.18999999999999,0.,-5.8476884659286E-16));
#405=CARTESIAN_POINT('',(-4.77499999999999,8.11899648690483,-5.8476884659286E-16));
#406=CARTESIAN_POINT('',(0.,3.46944695195361E-15,0.));
#407=CARTESIAN_POINT('',(-9.52499999999999,0.1,6.35));
#408=CARTESIAN_POINT('',(-9.52499999999999,0.,6.35));
#409=CARTESIAN_POINT('',(-9.52499999999999,0.,6.35));
#410=CARTESIAN_POINT('',(-9.52499999999999,0.,-6.35));
#411=CARTESIAN_POINT('',(-9.52499999999999,0.1,6.35));
#412=CARTESIAN_POINT('',(-9.52499999999999,0.1,6.35));
#413=CARTESIAN_POINT('',(-9.52499999999999,0.1,6.35));
#414=CARTESIAN_POINT('',(-9.52499999999999,0.1,-6.35));
#415=CARTESIAN_POINT('',(-9.52499999999999,0.1,-6.35));
#416=CARTESIAN_POINT('',(-9.52499999999999,0.1,-6.35));
#417=CARTESIAN_POINT('',(-9.52499999999999,0.,-6.35));
#418=CARTESIAN_POINT('',(9.52499999999999,0.,-6.35));
#419=CARTESIAN_POINT('',(-9.52499999999999,0.1,-6.35));
#420=CARTESIAN_POINT('',(9.52499999999999,0.1,-6.35));
#421=CARTESIAN_POINT('',(9.52499999999999,0.1,-6.35));
#422=CARTESIAN_POINT('',(9.52499999999999,0.1,-6.35));
#423=CARTESIAN_POINT('',(9.52499999999999,0.,-6.35));
#424=CARTESIAN_POINT('',(9.52499999999999,0.,6.35));
#425=CARTESIAN_POINT('',(9.52499999999999,0.1,-6.35));
#426=CARTESIAN_POINT('',(9.52499999999999,0.1,6.35));
#427=CARTESIAN_POINT('',(9.52499999999999,0.1,6.35));
#428=CARTESIAN_POINT('',(9.52499999999999,0.1,6.35));
#429=CARTESIAN_POINT('',(9.52499999999999,0.,6.35));
#430=CARTESIAN_POINT('',(9.52499999999999,0.1,6.35));
#431=CARTESIAN_POINT('',(0.,0.1,0.));
#432=CARTESIAN_POINT('',(-4.77499999999999,0.0999999999999994,-5.8476884659286E-16));
#433=CARTESIAN_POINT('',(-4.77499999999999,0.0999999999999994,-1.585));
#434=CARTESIAN_POINT('',(0.,0.,0.));
#435=CARTESIAN_POINT('',(-4.77499999999999,0.,-5.8476884659286E-16));
#436=CARTESIAN_POINT('',(-3.18999999999999,0.,-5.8476884659286E-16));
#437=CARTESIAN_POINT('',(-4.77499999999999,8.11899648690483,-5.8476884659286E-16));
#438=CARTESIAN_POINT('',(0.,-0.0999999999999959,0.));
#439=CARTESIAN_POINT('',(0.,0.030000000000004,0.));
#440=MECHANICAL_DESIGN_GEOMETRIC_PRESENTATION_REPRESENTATION('',(#260,#261),
#441);
#441=(
GEOMETRIC_REPRESENTATION_CONTEXT(3)
GLOBAL_UNCERTAINTY_ASSIGNED_CONTEXT((#444))
GLOBAL_UNIT_ASSIGNED_CONTEXT((#449,#448,#447))
REPRESENTATION_CONTEXT('4040220','TOP_LEVEL_ASSEMBLY_PART')
);
#442=(
GEOMETRIC_REPRESENTATION_CONTEXT(3)
GLOBAL_UNCERTAINTY_ASSIGNED_CONTEXT((#445))
GLOBAL_UNIT_ASSIGNED_CONTEXT((#449,#448,#447))
REPRESENTATION_CONTEXT('Fiberglass','COMPONENT_PART')
);
#443=(
GEOMETRIC_REPRESENTATION_CONTEXT(3)
GLOBAL_UNCERTAINTY_ASSIGNED_CONTEXT((#446))
GLOBAL_UNIT_ASSIGNED_CONTEXT((#449,#448,#447))
REPRESENTATION_CONTEXT('Silicone','COMPONENT_PART')
);
#444=UNCERTAINTY_MEASURE_WITH_UNIT(LENGTH_MEASURE(0.005),#449,
'DISTANCE_ACCURACY_VALUE','Maximum Tolerance applied to model');
#445=UNCERTAINTY_MEASURE_WITH_UNIT(LENGTH_MEASURE(0.005),#449,
'DISTANCE_ACCURACY_VALUE','Maximum Tolerance applied to model');
#446=UNCERTAINTY_MEASURE_WITH_UNIT(LENGTH_MEASURE(0.005),#449,
'DISTANCE_ACCURACY_VALUE','Maximum Tolerance applied to model');
#447=(
NAMED_UNIT(*)
SI_UNIT($,.STERADIAN.)
SOLID_ANGLE_UNIT()
);
#448=(
NAMED_UNIT(*)
PLANE_ANGLE_UNIT()
SI_UNIT($,.RADIAN.)
);
#449=(
LENGTH_UNIT()
NAMED_UNIT(*)
SI_UNIT(.MILLI.,.METRE.)
);
#450=PRODUCT_DEFINITION_SHAPE('','',#456);
#451=PRODUCT_DEFINITION_SHAPE('','',#457);
#452=PRODUCT_DEFINITION_SHAPE(' ','NAUO PRDDFN',#21);
#453=PRODUCT_DEFINITION_SHAPE('','',#458);
#454=PRODUCT_DEFINITION_SHAPE(' ','NAUO PRDDFN',#22);
#455=PRODUCT_DEFINITION_SHAPE(' ','NAUO PRDDFN',#23);
#456=PRODUCT_DEFINITION('','',#462,#459);
#457=PRODUCT_DEFINITION('','',#463,#460);
#458=PRODUCT_DEFINITION('','',#464,#461);
#459=PRODUCT_DEFINITION_CONTEXT('',#478,'design');
#460=PRODUCT_DEFINITION_CONTEXT('',#478,'design');
#461=PRODUCT_DEFINITION_CONTEXT('',#478,'design');
#462=PRODUCT_DEFINITION_FORMATION_WITH_SPECIFIED_SOURCE('','',#468,
 .NOT_KNOWN.);
#463=PRODUCT_DEFINITION_FORMATION_WITH_SPECIFIED_SOURCE('','',#469,
 .NOT_KNOWN.);
#464=PRODUCT_DEFINITION_FORMATION_WITH_SPECIFIED_SOURCE('','',#470,
 .NOT_KNOWN.);
#465=PRODUCT_RELATED_PRODUCT_CATEGORY('','',(#468));
#466=PRODUCT_RELATED_PRODUCT_CATEGORY('','',(#469));
#467=PRODUCT_RELATED_PRODUCT_CATEGORY('','',(#470));
#468=PRODUCT('4040220','4040220','4040220',(#474));
#469=PRODUCT('Fiberglass','Fiberglass','Fiberglass',(#475));
#470=PRODUCT('Silicone','Silicone','Silicone',(#476));
#471=PRODUCT_CATEGORY('','');
#472=PRODUCT_CATEGORY('','');
#473=PRODUCT_CATEGORY('','');
#474=PRODUCT_CONTEXT('',#478,'mechanical');
#475=PRODUCT_CONTEXT('',#478,'mechanical');
#476=PRODUCT_CONTEXT('',#478,'mechanical');
#477=APPLICATION_PROTOCOL_DEFINITION('international standard',
'automotive_design',2010,#478);
#478=APPLICATION_CONTEXT(
'core data for automotive mechanical design processes');
ENDSEC;
END-ISO-10303-21;
