ISO-10303-21;
HEADER;
/* Generated by software containing ST-Developer
 * from STEP Tools, Inc. (www.steptools.com) 
 */
/* OPTION: strings as raw bytes, not using required /X/ escapes */

FILE_DESCRIPTION(
/* description */ ('Unknown'),
/* implementation_level */ '2;1');

FILE_NAME(
/* name */ '9774005633',
/* time_stamp */ '2020-09-17T11:57:02+02:00',
/* author */ ('Unknown'),
/* organization */ ('Unknown'),
/* preprocessor_version */ 'ST-DEVELOPER v16.7',
/* originating_system */ 'DEX',
/* authorisation */ $);

FILE_SCHEMA (('AUTOMOTIVE_DESIGN {1 0 10303 214 3 1 1}'));
ENDSEC;

DATA;
#10=PROPERTY_DEFINITION_REPRESENTATION(#14,#12);
#11=PROPERTY_DEFINITION_REPRESENTATION(#15,#13);
#12=REPRESENTATION('',(#16),#220);
#13=REPRESENTATION('',(#17),#220);
#14=PROPERTY_DEFINITION('pmi validation property','',#225);
#15=PROPERTY_DEFINITION('pmi validation property','',#225);
#16=VALUE_REPRESENTATION_ITEM('number of annotations',COUNT_MEASURE(0.));
#17=VALUE_REPRESENTATION_ITEM('number of views',COUNT_MEASURE(0.));
#18=SHAPE_REPRESENTATION_RELATIONSHIP('','',#151,#19);
#19=ADVANCED_BREP_SHAPE_REPRESENTATION('',(#149),#220);
#20=CONICAL_SURFACE('',#166,0.8105,0.785398163397448);
#21=PLANE('',#156);
#22=PLANE('',#160);
#23=PLANE('',#162);
#24=ORIENTED_EDGE('',*,*,#38,.T.);
#25=ORIENTED_EDGE('',*,*,#39,.F.);
#26=ORIENTED_EDGE('',*,*,#40,.T.);
#27=ORIENTED_EDGE('',*,*,#38,.F.);
#28=ORIENTED_EDGE('',*,*,#41,.T.);
#29=ORIENTED_EDGE('',*,*,#40,.F.);
#30=ORIENTED_EDGE('',*,*,#42,.T.);
#31=ORIENTED_EDGE('',*,*,#41,.F.);
#32=ORIENTED_EDGE('',*,*,#43,.F.);
#33=ORIENTED_EDGE('',*,*,#39,.T.);
#34=ORIENTED_EDGE('',*,*,#43,.T.);
#35=ORIENTED_EDGE('',*,*,#44,.T.);
#36=ORIENTED_EDGE('',*,*,#44,.F.);
#37=ORIENTED_EDGE('',*,*,#42,.F.);
#38=EDGE_CURVE('',#45,#45,#52,.T.);
#39=EDGE_CURVE('',#46,#46,#53,.T.);
#40=EDGE_CURVE('',#47,#47,#54,.T.);
#41=EDGE_CURVE('',#48,#48,#55,.T.);
#42=EDGE_CURVE('',#49,#49,#56,.T.);
#43=EDGE_CURVE('',#50,#50,#57,.T.);
#44=EDGE_CURVE('',#51,#51,#58,.T.);
#45=VERTEX_POINT('',#200);
#46=VERTEX_POINT('',#202);
#47=VERTEX_POINT('',#205);
#48=VERTEX_POINT('',#208);
#49=VERTEX_POINT('',#211);
#50=VERTEX_POINT('',#214);
#51=VERTEX_POINT('',#217);
#52=CIRCLE('',#154,0.95);
#53=CIRCLE('',#155,0.95);
#54=CIRCLE('',#157,1.65);
#55=CIRCLE('',#159,1.65);
#56=CIRCLE('',#161,0.8105);
#57=CIRCLE('',#163,0.6105);
#58=CIRCLE('',#165,0.6105);
#59=EDGE_LOOP('',(#24));
#60=EDGE_LOOP('',(#25));
#61=EDGE_LOOP('',(#26));
#62=EDGE_LOOP('',(#27));
#63=EDGE_LOOP('',(#28));
#64=EDGE_LOOP('',(#29));
#65=EDGE_LOOP('',(#30));
#66=EDGE_LOOP('',(#31));
#67=EDGE_LOOP('',(#32));
#68=EDGE_LOOP('',(#33));
#69=EDGE_LOOP('',(#34));
#70=EDGE_LOOP('',(#35));
#71=EDGE_LOOP('',(#36));
#72=EDGE_LOOP('',(#37));
#73=FACE_BOUND('',#59,.T.);
#74=FACE_BOUND('',#60,.T.);
#75=FACE_BOUND('',#61,.T.);
#76=FACE_BOUND('',#62,.T.);
#77=FACE_BOUND('',#63,.T.);
#78=FACE_BOUND('',#64,.T.);
#79=FACE_BOUND('',#65,.T.);
#80=FACE_BOUND('',#66,.T.);
#81=FACE_BOUND('',#67,.T.);
#82=FACE_BOUND('',#68,.T.);
#83=FACE_BOUND('',#69,.T.);
#84=FACE_BOUND('',#70,.T.);
#85=FACE_BOUND('',#71,.T.);
#86=FACE_BOUND('',#72,.T.);
#87=CYLINDRICAL_SURFACE('',#153,0.95);
#88=CYLINDRICAL_SURFACE('',#158,1.65);
#89=CYLINDRICAL_SURFACE('',#164,0.6105);
#90=STYLED_ITEM('',(#97),#141);
#91=STYLED_ITEM('',(#98),#142);
#92=STYLED_ITEM('',(#99),#143);
#93=STYLED_ITEM('',(#100),#144);
#94=STYLED_ITEM('',(#101),#145);
#95=STYLED_ITEM('',(#102),#146);
#96=STYLED_ITEM('',(#103),#147);
#97=PRESENTATION_STYLE_ASSIGNMENT((#104));
#98=PRESENTATION_STYLE_ASSIGNMENT((#105));
#99=PRESENTATION_STYLE_ASSIGNMENT((#106));
#100=PRESENTATION_STYLE_ASSIGNMENT((#107));
#101=PRESENTATION_STYLE_ASSIGNMENT((#108));
#102=PRESENTATION_STYLE_ASSIGNMENT((#109));
#103=PRESENTATION_STYLE_ASSIGNMENT((#110));
#104=SURFACE_STYLE_USAGE(.BOTH.,#111);
#105=SURFACE_STYLE_USAGE(.BOTH.,#112);
#106=SURFACE_STYLE_USAGE(.BOTH.,#113);
#107=SURFACE_STYLE_USAGE(.BOTH.,#114);
#108=SURFACE_STYLE_USAGE(.BOTH.,#115);
#109=SURFACE_STYLE_USAGE(.BOTH.,#116);
#110=SURFACE_STYLE_USAGE(.BOTH.,#117);
#111=SURFACE_SIDE_STYLE('',(#118));
#112=SURFACE_SIDE_STYLE('',(#119));
#113=SURFACE_SIDE_STYLE('',(#120));
#114=SURFACE_SIDE_STYLE('',(#121));
#115=SURFACE_SIDE_STYLE('',(#122));
#116=SURFACE_SIDE_STYLE('',(#123));
#117=SURFACE_SIDE_STYLE('',(#124));
#118=SURFACE_STYLE_FILL_AREA(#125);
#119=SURFACE_STYLE_FILL_AREA(#126);
#120=SURFACE_STYLE_FILL_AREA(#127);
#121=SURFACE_STYLE_FILL_AREA(#128);
#122=SURFACE_STYLE_FILL_AREA(#129);
#123=SURFACE_STYLE_FILL_AREA(#130);
#124=SURFACE_STYLE_FILL_AREA(#131);
#125=FILL_AREA_STYLE('',(#132));
#126=FILL_AREA_STYLE('',(#133));
#127=FILL_AREA_STYLE('',(#134));
#128=FILL_AREA_STYLE('',(#135));
#129=FILL_AREA_STYLE('',(#136));
#130=FILL_AREA_STYLE('',(#137));
#131=FILL_AREA_STYLE('',(#138));
#132=FILL_AREA_STYLE_COLOUR('',#139);
#133=FILL_AREA_STYLE_COLOUR('',#139);
#134=FILL_AREA_STYLE_COLOUR('',#139);
#135=FILL_AREA_STYLE_COLOUR('',#139);
#136=FILL_AREA_STYLE_COLOUR('',#139);
#137=FILL_AREA_STYLE_COLOUR('',#140);
#138=FILL_AREA_STYLE_COLOUR('',#139);
#139=COLOUR_RGB('',0.331739127635956,0.340869575738907,0.349999994039536);
#140=COLOUR_RGB('',0.1875,0.75,0.581249892711639);
#141=ADVANCED_FACE('',(#73,#74),#87,.T.);
#142=ADVANCED_FACE('',(#75,#76),#21,.T.);
#143=ADVANCED_FACE('',(#77,#78),#88,.T.);
#144=ADVANCED_FACE('',(#79,#80),#22,.T.);
#145=ADVANCED_FACE('',(#81,#82),#23,.T.);
#146=ADVANCED_FACE('',(#83,#84),#89,.F.);
#147=ADVANCED_FACE('',(#85,#86),#20,.F.);
#148=CLOSED_SHELL('',(#141,#142,#143,#144,#145,#146,#147));
#149=MANIFOLD_SOLID_BREP('',#148);
#150=SHAPE_DEFINITION_REPRESENTATION(#225,#151);
#151=SHAPE_REPRESENTATION('9774005633',(#152),#220);
#152=AXIS2_PLACEMENT_3D('',#197,#167,#168);
#153=AXIS2_PLACEMENT_3D('',#198,#169,#170);
#154=AXIS2_PLACEMENT_3D('',#199,#171,#172);
#155=AXIS2_PLACEMENT_3D('',#201,#173,#174);
#156=AXIS2_PLACEMENT_3D('',#203,#175,#176);
#157=AXIS2_PLACEMENT_3D('',#204,#177,#178);
#158=AXIS2_PLACEMENT_3D('',#206,#179,#180);
#159=AXIS2_PLACEMENT_3D('',#207,#181,#182);
#160=AXIS2_PLACEMENT_3D('',#209,#183,#184);
#161=AXIS2_PLACEMENT_3D('',#210,#185,#186);
#162=AXIS2_PLACEMENT_3D('',#212,#187,#188);
#163=AXIS2_PLACEMENT_3D('',#213,#189,#190);
#164=AXIS2_PLACEMENT_3D('',#215,#191,#192);
#165=AXIS2_PLACEMENT_3D('',#216,#193,#194);
#166=AXIS2_PLACEMENT_3D('',#218,#195,#196);
#167=DIRECTION('',(0.,0.,1.));
#168=DIRECTION('',(1.,0.,0.));
#169=DIRECTION('',(0.,0.,-1.));
#170=DIRECTION('',(-1.,0.,0.));
#171=DIRECTION('',(0.,0.,-1.));
#172=DIRECTION('',(-1.,0.,0.));
#173=DIRECTION('',(0.,0.,-1.));
#174=DIRECTION('',(-1.,0.,0.));
#175=DIRECTION('',(0.,0.,-1.));
#176=DIRECTION('',(-1.,0.,0.));
#177=DIRECTION('',(0.,0.,-1.));
#178=DIRECTION('',(-1.,0.,0.));
#179=DIRECTION('',(0.,0.,-1.));
#180=DIRECTION('',(-1.,0.,0.));
#181=DIRECTION('',(0.,0.,-1.));
#182=DIRECTION('',(-1.,0.,0.));
#183=DIRECTION('',(0.,0.,1.));
#184=DIRECTION('',(1.,0.,0.));
#185=DIRECTION('',(0.,0.,-1.));
#186=DIRECTION('',(1.,0.,0.));
#187=DIRECTION('',(0.,0.,-1.));
#188=DIRECTION('',(-1.,0.,0.));
#189=DIRECTION('',(0.,0.,-1.));
#190=DIRECTION('',(-1.,0.,0.));
#191=DIRECTION('',(0.,0.,-1.));
#192=DIRECTION('',(0.,-1.,0.));
#193=DIRECTION('',(0.,0.,1.));
#194=DIRECTION('',(1.,0.,0.));
#195=DIRECTION('',(0.,0.,1.));
#196=DIRECTION('',(1.,0.,0.));
#197=CARTESIAN_POINT('',(0.,0.,0.));
#198=CARTESIAN_POINT('',(0.,0.,4.));
#199=CARTESIAN_POINT('',(0.,0.,0.));
#200=CARTESIAN_POINT('',(-0.95,0.,0.));
#201=CARTESIAN_POINT('',(0.,0.,-0.7));
#202=CARTESIAN_POINT('',(-0.95,0.,-0.7));
#203=CARTESIAN_POINT('',(-0.95,0.,-9.53006535247641E-17));
#204=CARTESIAN_POINT('',(0.,0.,0.));
#205=CARTESIAN_POINT('',(-1.65,0.,0.));
#206=CARTESIAN_POINT('',(0.,0.,4.));
#207=CARTESIAN_POINT('',(0.,0.,0.5));
#208=CARTESIAN_POINT('',(-1.65,0.,0.5));
#209=CARTESIAN_POINT('',(-1.65,0.,0.5));
#210=CARTESIAN_POINT('',(0.,0.,0.5));
#211=CARTESIAN_POINT('',(0.8105,0.,0.5));
#212=CARTESIAN_POINT('',(-0.95,0.,-0.7));
#213=CARTESIAN_POINT('',(0.,0.,-0.7));
#214=CARTESIAN_POINT('',(-0.6105,0.,-0.7));
#215=CARTESIAN_POINT('',(0.,0.,0.5));
#216=CARTESIAN_POINT('',(0.,0.,0.3));
#217=CARTESIAN_POINT('',(0.6105,0.,0.3));
#218=CARTESIAN_POINT('',(0.,0.,0.5));
#219=MECHANICAL_DESIGN_GEOMETRIC_PRESENTATION_REPRESENTATION('',(#90,#91,
#92,#93,#94,#95,#96),#220);
#220=(
GEOMETRIC_REPRESENTATION_CONTEXT(3)
GLOBAL_UNCERTAINTY_ASSIGNED_CONTEXT((#221))
GLOBAL_UNIT_ASSIGNED_CONTEXT((#224,#223,#222))
REPRESENTATION_CONTEXT('9774005633','TOP_LEVEL_ASSEMBLY_PART')
);
#221=UNCERTAINTY_MEASURE_WITH_UNIT(LENGTH_MEASURE(0.005),#224,
'DISTANCE_ACCURACY_VALUE','Maximum Tolerance applied to model');
#222=(
NAMED_UNIT(*)
SI_UNIT($,.STERADIAN.)
SOLID_ANGLE_UNIT()
);
#223=(
NAMED_UNIT(*)
PLANE_ANGLE_UNIT()
SI_UNIT($,.RADIAN.)
);
#224=(
LENGTH_UNIT()
NAMED_UNIT(*)
SI_UNIT(.MILLI.,.METRE.)
);
#225=PRODUCT_DEFINITION_SHAPE('','',#226);
#226=PRODUCT_DEFINITION('','',#228,#227);
#227=PRODUCT_DEFINITION_CONTEXT('',#234,'design');
#228=PRODUCT_DEFINITION_FORMATION_WITH_SPECIFIED_SOURCE('','',#230,
 .NOT_KNOWN.);
#229=PRODUCT_RELATED_PRODUCT_CATEGORY('','',(#230));
#230=PRODUCT('9774005633','9774005633','9774005633',(#232));
#231=PRODUCT_CATEGORY('','');
#232=PRODUCT_CONTEXT('',#234,'mechanical');
#233=APPLICATION_PROTOCOL_DEFINITION('international standard',
'automotive_design',2010,#234);
#234=APPLICATION_CONTEXT(
'core data for automotive mechanical design processes');
ENDSEC;
END-ISO-10303-21;
