ISO-10303-21;
HEADER;
/* Generated by software containing ST-Developer
 * from STEP Tools, Inc. (www.steptools.com) 
 */
/* OPTION: strings as raw bytes, not using required /X/ escapes */

FILE_DESCRIPTION(
/* description */ ('Unknown'),
/* implementation_level */ '2;1');

FILE_NAME(
/* name */ '9774005243',
/* time_stamp */ '2020-02-14T11:21:13+01:00',
/* author */ ('Unknown'),
/* organization */ ('Unknown'),
/* preprocessor_version */ 'ST-DEVELOPER v16.7',
/* originating_system */ 'DEX',
/* authorisation */ $);

FILE_SCHEMA (('AUTOMOTIVE_DESIGN {1 0 10303 214 3 1 1}'));
ENDSEC;

DATA;
#10=PROPERTY_DEFINITION_REPRESENTATION(#14,#12);
#11=PROPERTY_DEFINITION_REPRESENTATION(#15,#13);
#12=REPRESENTATION('',(#16),#274);
#13=REPRESENTATION('',(#17),#274);
#14=PROPERTY_DEFINITION('pmi validation property','',#279);
#15=PROPERTY_DEFINITION('pmi validation property','',#279);
#16=VALUE_REPRESENTATION_ITEM('number of annotations',COUNT_MEASURE(0.));
#17=VALUE_REPRESENTATION_ITEM('number of views',COUNT_MEASURE(0.));
#18=SHAPE_REPRESENTATION_RELATIONSHIP('','',#187,#19);
#19=ADVANCED_BREP_SHAPE_REPRESENTATION('',(#185),#274);
#20=CONICAL_SURFACE('',#201,2.175,0.785398163397447);
#21=CONICAL_SURFACE('',#205,0.7835,0.785398163397448);
#22=CONICAL_SURFACE('',#206,0.9335,0.785398163397448);
#23=PLANE('',#192);
#24=PLANE('',#198);
#25=PLANE('',#199);
#26=ORIENTED_EDGE('',*,*,#44,.T.);
#27=ORIENTED_EDGE('',*,*,#45,.F.);
#28=ORIENTED_EDGE('',*,*,#46,.T.);
#29=ORIENTED_EDGE('',*,*,#47,.T.);
#30=ORIENTED_EDGE('',*,*,#48,.T.);
#31=ORIENTED_EDGE('',*,*,#49,.F.);
#32=ORIENTED_EDGE('',*,*,#45,.T.);
#33=ORIENTED_EDGE('',*,*,#48,.F.);
#34=ORIENTED_EDGE('',*,*,#50,.T.);
#35=ORIENTED_EDGE('',*,*,#49,.T.);
#36=ORIENTED_EDGE('',*,*,#47,.F.);
#37=ORIENTED_EDGE('',*,*,#44,.F.);
#38=ORIENTED_EDGE('',*,*,#51,.T.);
#39=ORIENTED_EDGE('',*,*,#52,.T.);
#40=ORIENTED_EDGE('',*,*,#46,.F.);
#41=ORIENTED_EDGE('',*,*,#52,.F.);
#42=ORIENTED_EDGE('',*,*,#51,.F.);
#43=ORIENTED_EDGE('',*,*,#50,.F.);
#44=EDGE_CURVE('',#53,#53,#62,.T.);
#45=EDGE_CURVE('',#54,#54,#63,.T.);
#46=EDGE_CURVE('',#55,#55,#64,.T.);
#47=EDGE_CURVE('',#56,#56,#65,.F.);
#48=EDGE_CURVE('',#57,#57,#66,.T.);
#49=EDGE_CURVE('',#58,#58,#67,.T.);
#50=EDGE_CURVE('',#59,#59,#68,.T.);
#51=EDGE_CURVE('',#60,#60,#69,.F.);
#52=EDGE_CURVE('',#61,#61,#70,.F.);
#53=VERTEX_POINT('',#248);
#54=VERTEX_POINT('',#250);
#55=VERTEX_POINT('',#253);
#56=VERTEX_POINT('',#255);
#57=VERTEX_POINT('',#258);
#58=VERTEX_POINT('',#260);
#59=VERTEX_POINT('',#264);
#60=VERTEX_POINT('',#268);
#61=VERTEX_POINT('',#270);
#62=CIRCLE('',#190,2.175);
#63=CIRCLE('',#191,2.175);
#64=CIRCLE('',#193,1.1335);
#65=CIRCLE('',#194,1.975);
#66=CIRCLE('',#196,1.4);
#67=CIRCLE('',#197,1.4);
#68=CIRCLE('',#200,0.9335);
#69=CIRCLE('',#203,0.7835);
#70=CIRCLE('',#204,0.7835);
#71=EDGE_LOOP('',(#26));
#72=EDGE_LOOP('',(#27));
#73=EDGE_LOOP('',(#28));
#74=EDGE_LOOP('',(#29));
#75=EDGE_LOOP('',(#30));
#76=EDGE_LOOP('',(#31));
#77=EDGE_LOOP('',(#32));
#78=EDGE_LOOP('',(#33));
#79=EDGE_LOOP('',(#34));
#80=EDGE_LOOP('',(#35));
#81=EDGE_LOOP('',(#36));
#82=EDGE_LOOP('',(#37));
#83=EDGE_LOOP('',(#38));
#84=EDGE_LOOP('',(#39));
#85=EDGE_LOOP('',(#40));
#86=EDGE_LOOP('',(#41));
#87=EDGE_LOOP('',(#42));
#88=EDGE_LOOP('',(#43));
#89=FACE_BOUND('',#71,.T.);
#90=FACE_BOUND('',#72,.T.);
#91=FACE_BOUND('',#73,.T.);
#92=FACE_BOUND('',#74,.T.);
#93=FACE_BOUND('',#75,.T.);
#94=FACE_BOUND('',#76,.T.);
#95=FACE_BOUND('',#77,.T.);
#96=FACE_BOUND('',#78,.T.);
#97=FACE_BOUND('',#79,.T.);
#98=FACE_BOUND('',#80,.T.);
#99=FACE_BOUND('',#81,.T.);
#100=FACE_BOUND('',#82,.T.);
#101=FACE_BOUND('',#83,.T.);
#102=FACE_BOUND('',#84,.T.);
#103=FACE_BOUND('',#85,.T.);
#104=FACE_BOUND('',#86,.T.);
#105=FACE_BOUND('',#87,.T.);
#106=FACE_BOUND('',#88,.T.);
#107=CYLINDRICAL_SURFACE('',#189,2.175);
#108=CYLINDRICAL_SURFACE('',#195,1.4);
#109=CYLINDRICAL_SURFACE('',#202,0.7835);
#110=STYLED_ITEM('',(#119),#175);
#111=STYLED_ITEM('',(#120),#176);
#112=STYLED_ITEM('',(#121),#177);
#113=STYLED_ITEM('',(#122),#178);
#114=STYLED_ITEM('',(#123),#179);
#115=STYLED_ITEM('',(#124),#180);
#116=STYLED_ITEM('',(#125),#181);
#117=STYLED_ITEM('',(#126),#182);
#118=STYLED_ITEM('',(#127),#183);
#119=PRESENTATION_STYLE_ASSIGNMENT((#128));
#120=PRESENTATION_STYLE_ASSIGNMENT((#129));
#121=PRESENTATION_STYLE_ASSIGNMENT((#130));
#122=PRESENTATION_STYLE_ASSIGNMENT((#131));
#123=PRESENTATION_STYLE_ASSIGNMENT((#132));
#124=PRESENTATION_STYLE_ASSIGNMENT((#133));
#125=PRESENTATION_STYLE_ASSIGNMENT((#134));
#126=PRESENTATION_STYLE_ASSIGNMENT((#135));
#127=PRESENTATION_STYLE_ASSIGNMENT((#136));
#128=SURFACE_STYLE_USAGE(.BOTH.,#137);
#129=SURFACE_STYLE_USAGE(.BOTH.,#138);
#130=SURFACE_STYLE_USAGE(.BOTH.,#139);
#131=SURFACE_STYLE_USAGE(.BOTH.,#140);
#132=SURFACE_STYLE_USAGE(.BOTH.,#141);
#133=SURFACE_STYLE_USAGE(.BOTH.,#142);
#134=SURFACE_STYLE_USAGE(.BOTH.,#143);
#135=SURFACE_STYLE_USAGE(.BOTH.,#144);
#136=SURFACE_STYLE_USAGE(.BOTH.,#145);
#137=SURFACE_SIDE_STYLE('',(#146));
#138=SURFACE_SIDE_STYLE('',(#147));
#139=SURFACE_SIDE_STYLE('',(#148));
#140=SURFACE_SIDE_STYLE('',(#149));
#141=SURFACE_SIDE_STYLE('',(#150));
#142=SURFACE_SIDE_STYLE('',(#151));
#143=SURFACE_SIDE_STYLE('',(#152));
#144=SURFACE_SIDE_STYLE('',(#153));
#145=SURFACE_SIDE_STYLE('',(#154));
#146=SURFACE_STYLE_FILL_AREA(#155);
#147=SURFACE_STYLE_FILL_AREA(#156);
#148=SURFACE_STYLE_FILL_AREA(#157);
#149=SURFACE_STYLE_FILL_AREA(#158);
#150=SURFACE_STYLE_FILL_AREA(#159);
#151=SURFACE_STYLE_FILL_AREA(#160);
#152=SURFACE_STYLE_FILL_AREA(#161);
#153=SURFACE_STYLE_FILL_AREA(#162);
#154=SURFACE_STYLE_FILL_AREA(#163);
#155=FILL_AREA_STYLE('',(#164));
#156=FILL_AREA_STYLE('',(#165));
#157=FILL_AREA_STYLE('',(#166));
#158=FILL_AREA_STYLE('',(#167));
#159=FILL_AREA_STYLE('',(#168));
#160=FILL_AREA_STYLE('',(#169));
#161=FILL_AREA_STYLE('',(#170));
#162=FILL_AREA_STYLE('',(#171));
#163=FILL_AREA_STYLE('',(#172));
#164=FILL_AREA_STYLE_COLOUR('',#173);
#165=FILL_AREA_STYLE_COLOUR('',#173);
#166=FILL_AREA_STYLE_COLOUR('',#173);
#167=FILL_AREA_STYLE_COLOUR('',#173);
#168=FILL_AREA_STYLE_COLOUR('',#173);
#169=FILL_AREA_STYLE_COLOUR('',#173);
#170=FILL_AREA_STYLE_COLOUR('',#174);
#171=FILL_AREA_STYLE_COLOUR('',#173);
#172=FILL_AREA_STYLE_COLOUR('',#173);
#173=COLOUR_RGB('',0.645180702209473,0.678915679454803,0.699999988079071);
#174=COLOUR_RGB('',0.1875,0.75,0.581249892711639);
#175=ADVANCED_FACE('',(#89,#90),#107,.T.);
#176=ADVANCED_FACE('',(#91,#92),#23,.F.);
#177=ADVANCED_FACE('',(#93,#94),#108,.T.);
#178=ADVANCED_FACE('',(#95,#96),#24,.T.);
#179=ADVANCED_FACE('',(#97,#98),#25,.F.);
#180=ADVANCED_FACE('',(#99,#100),#20,.T.);
#181=ADVANCED_FACE('',(#101,#102),#109,.F.);
#182=ADVANCED_FACE('',(#103,#104),#21,.F.);
#183=ADVANCED_FACE('',(#105,#106),#22,.F.);
#184=CLOSED_SHELL('',(#175,#176,#177,#178,#179,#180,#181,#182,#183));
#185=MANIFOLD_SOLID_BREP('',#184);
#186=SHAPE_DEFINITION_REPRESENTATION(#279,#187);
#187=SHAPE_REPRESENTATION('9774005243',(#188),#274);
#188=AXIS2_PLACEMENT_3D('',#245,#207,#208);
#189=AXIS2_PLACEMENT_3D('',#246,#209,#210);
#190=AXIS2_PLACEMENT_3D('',#247,#211,#212);
#191=AXIS2_PLACEMENT_3D('',#249,#213,#214);
#192=AXIS2_PLACEMENT_3D('',#251,#215,#216);
#193=AXIS2_PLACEMENT_3D('',#252,#217,#218);
#194=AXIS2_PLACEMENT_3D('',#254,#219,#220);
#195=AXIS2_PLACEMENT_3D('',#256,#221,#222);
#196=AXIS2_PLACEMENT_3D('',#257,#223,#224);
#197=AXIS2_PLACEMENT_3D('',#259,#225,#226);
#198=AXIS2_PLACEMENT_3D('',#261,#227,#228);
#199=AXIS2_PLACEMENT_3D('',#262,#229,#230);
#200=AXIS2_PLACEMENT_3D('',#263,#231,#232);
#201=AXIS2_PLACEMENT_3D('',#265,#233,#234);
#202=AXIS2_PLACEMENT_3D('',#266,#235,#236);
#203=AXIS2_PLACEMENT_3D('',#267,#237,#238);
#204=AXIS2_PLACEMENT_3D('',#269,#239,#240);
#205=AXIS2_PLACEMENT_3D('',#271,#241,#242);
#206=AXIS2_PLACEMENT_3D('',#272,#243,#244);
#207=DIRECTION('',(0.,0.,1.));
#208=DIRECTION('',(1.,0.,0.));
#209=DIRECTION('',(-6.12323399573677E-17,0.,-1.));
#210=DIRECTION('',(-1.,0.,6.12323399573677E-17));
#211=DIRECTION('',(-6.12323399573677E-17,0.,-1.));
#212=DIRECTION('',(-1.,0.,6.12323399573677E-17));
#213=DIRECTION('',(9.969675149292E-17,0.,-1.));
#214=DIRECTION('',(-1.,0.,-9.969675149292E-17));
#215=DIRECTION('',(-6.12323399573677E-17,0.,-1.));
#216=DIRECTION('',(-1.,0.,6.12323399573677E-17));
#217=DIRECTION('',(-6.12323399573677E-17,0.,-1.));
#218=DIRECTION('',(-1.,0.,6.12323399573677E-17));
#219=DIRECTION('',(-6.12323399573677E-17,0.,-1.));
#220=DIRECTION('',(-1.,0.,6.12323399573677E-17));
#221=DIRECTION('',(9.969675149292E-17,0.,-1.));
#222=DIRECTION('',(-1.,0.,-9.969675149292E-17));
#223=DIRECTION('',(9.969675149292E-17,0.,-1.));
#224=DIRECTION('',(-1.,0.,-9.969675149292E-17));
#225=DIRECTION('',(9.969675149292E-17,0.,-1.));
#226=DIRECTION('',(-1.,0.,-9.969675149292E-17));
#227=DIRECTION('',(9.969675149292E-17,0.,-1.));
#228=DIRECTION('',(-1.,0.,-9.969675149292E-17));
#229=DIRECTION('',(6.12323399573677E-17,0.,1.));
#230=DIRECTION('',(1.,0.,-6.12323399573677E-17));
#231=DIRECTION('',(6.12323399573677E-17,0.,1.));
#232=DIRECTION('',(1.,0.,-6.12323399573677E-17));
#233=DIRECTION('',(-6.12323399573677E-17,0.,-1.));
#234=DIRECTION('',(-1.,0.,6.12323399573677E-17));
#235=DIRECTION('',(6.12323399573677E-17,0.,1.));
#236=DIRECTION('',(1.,0.,-6.12323399573677E-17));
#237=DIRECTION('',(6.12323399573677E-17,0.,1.));
#238=DIRECTION('',(1.,0.,-6.12323399573677E-17));
#239=DIRECTION('',(-6.12323399573677E-17,0.,-1.));
#240=DIRECTION('',(-1.,0.,6.12323399573677E-17));
#241=DIRECTION('',(6.12323399573677E-17,0.,1.));
#242=DIRECTION('',(1.,0.,-6.12323399573677E-17));
#243=DIRECTION('',(-6.12323399573677E-17,0.,-1.));
#244=DIRECTION('',(-1.,0.,6.12323399573677E-17));
#245=CARTESIAN_POINT('',(0.,0.,0.));
#246=CARTESIAN_POINT('',(0.,0.,0.));
#247=CARTESIAN_POINT('',(7.34788079488412E-17,0.,1.2));
#248=CARTESIAN_POINT('',(-2.175,0.,1.2));
#249=CARTESIAN_POINT('',(-8.9727076343628E-17,0.,0.900000000000001));
#250=CARTESIAN_POINT('',(-2.175,0.,0.9));
#251=CARTESIAN_POINT('',(-4.07747190911193E-33,0.,1.4));
#252=CARTESIAN_POINT('',(-5.9292306307801E-17,0.,1.4));
#253=CARTESIAN_POINT('',(-1.1335,0.,1.4));
#254=CARTESIAN_POINT('',(8.57252759403148E-17,0.,1.4));
#255=CARTESIAN_POINT('',(-1.975,0.,1.4));
#256=CARTESIAN_POINT('',(0.,0.,0.));
#257=CARTESIAN_POINT('',(-8.9727076343628E-17,0.,0.900000000000001));
#258=CARTESIAN_POINT('',(-1.4,0.,0.900000000000001));
#259=CARTESIAN_POINT('',(-5.09396415734853E-32,0.,5.10945851401215E-16));
#260=CARTESIAN_POINT('',(-1.4,0.,3.71370399311127E-16));
#261=CARTESIAN_POINT('',(-1.4,0.,0.9));
#262=CARTESIAN_POINT('',(-2.175,0.,6.65901697036373E-17));
#263=CARTESIAN_POINT('',(-1.45017582248116E-16,0.,-6.65901697036373E-17));
#264=CARTESIAN_POINT('',(0.9335,0.,-1.2375055905384E-16));
#265=CARTESIAN_POINT('',(7.34788079488412E-17,0.,1.2));
#266=CARTESIAN_POINT('',(-4.45614510396743E-16,0.,-4.9091203824305));
#267=CARTESIAN_POINT('',(-1.35832731254511E-16,0.,0.15));
#268=CARTESIAN_POINT('',(0.7835,0.,0.15));
#269=CARTESIAN_POINT('',(-8.07236252928797E-17,0.,1.05));
#270=CARTESIAN_POINT('',(-0.7835,0.,1.05));
#271=CARTESIAN_POINT('',(-8.07236252928797E-17,0.,1.05));
#272=CARTESIAN_POINT('',(-1.45017582248116E-16,0.,0.));
#273=MECHANICAL_DESIGN_GEOMETRIC_PRESENTATION_REPRESENTATION('',(#110,#111,
#112,#113,#114,#115,#116,#117,#118),#274);
#274=(
GEOMETRIC_REPRESENTATION_CONTEXT(3)
GLOBAL_UNCERTAINTY_ASSIGNED_CONTEXT((#275))
GLOBAL_UNIT_ASSIGNED_CONTEXT((#278,#277,#276))
REPRESENTATION_CONTEXT('9774005243','TOP_LEVEL_ASSEMBLY_PART')
);
#275=UNCERTAINTY_MEASURE_WITH_UNIT(LENGTH_MEASURE(0.005),#278,
'DISTANCE_ACCURACY_VALUE','Maximum Tolerance applied to model');
#276=(
NAMED_UNIT(*)
SI_UNIT($,.STERADIAN.)
SOLID_ANGLE_UNIT()
);
#277=(
NAMED_UNIT(*)
PLANE_ANGLE_UNIT()
SI_UNIT($,.RADIAN.)
);
#278=(
LENGTH_UNIT()
NAMED_UNIT(*)
SI_UNIT(.MILLI.,.METRE.)
);
#279=PRODUCT_DEFINITION_SHAPE('','',#280);
#280=PRODUCT_DEFINITION('','',#282,#281);
#281=PRODUCT_DEFINITION_CONTEXT('',#288,'design');
#282=PRODUCT_DEFINITION_FORMATION_WITH_SPECIFIED_SOURCE('','',#284,
 .NOT_KNOWN.);
#283=PRODUCT_RELATED_PRODUCT_CATEGORY('','',(#284));
#284=PRODUCT('9774005243','9774005243','9774005243',(#286));
#285=PRODUCT_CATEGORY('','');
#286=PRODUCT_CONTEXT('',#288,'mechanical');
#287=APPLICATION_PROTOCOL_DEFINITION('international standard',
'automotive_design',2010,#288);
#288=APPLICATION_CONTEXT(
'core data for automotive mechanical design processes');
ENDSEC;
END-ISO-10303-21;
