ISO-10303-21;
HEADER;
/* Generated by software containing ST-Developer
 * from STEP Tools, Inc. (www.steptools.com) 
 */
/* OPTION: strings as raw bytes, not using required /X/ escapes */

FILE_DESCRIPTION(
/* description */ ('Unknown'),
/* implementation_level */ '2;1');

FILE_NAME(
/* name */ '7466302',
/* time_stamp */ '2019-05-14T11:01:06+02:00',
/* author */ ('Unknown'),
/* organization */ ('Unknown'),
/* preprocessor_version */ 'ST-DEVELOPER v16.7',
/* originating_system */ 'DEX',
/* authorisation */ $);

FILE_SCHEMA (('AUTOMOTIVE_DESIGN {1 0 10303 214 3 1 1}'));
ENDSEC;

DATA;
#10=PROPERTY_DEFINITION_REPRESENTATION(#14,#12);
#11=PROPERTY_DEFINITION_REPRESENTATION(#15,#13);
#12=REPRESENTATION('',(#16),#514);
#13=REPRESENTATION('',(#17),#514);
#14=PROPERTY_DEFINITION('pmi validation property','',#519);
#15=PROPERTY_DEFINITION('pmi validation property','',#519);
#16=VALUE_REPRESENTATION_ITEM('number of annotations',COUNT_MEASURE(0.));
#17=VALUE_REPRESENTATION_ITEM('number of views',COUNT_MEASURE(0.));
#18=SHAPE_REPRESENTATION_RELATIONSHIP('','',#344,#19);
#19=ADVANCED_BREP_SHAPE_REPRESENTATION('',(#342),#514);
#20=CONICAL_SURFACE('',#367,0.7835,0.785398163397449);
#21=CONICAL_SURFACE('',#368,1.2835,0.785398163397448);
#22=B_SPLINE_CURVE_WITH_KNOTS('',3,(#491,#492,#493,#494,#495),
 .UNSPECIFIED.,.F.,.F.,(4,1,4),(0.,0.00082440150229066,0.00164880300458132),
 .UNSPECIFIED.);
#23=B_SPLINE_CURVE_WITH_KNOTS('',3,(#499,#500,#501,#502,#503),
 .UNSPECIFIED.,.F.,.F.,(4,1,4),(0.,0.00082440150229066,0.00164880300458132),
 .UNSPECIFIED.);
#24=CYLINDRICAL_SURFACE('',#358,50.);
#25=CYLINDRICAL_SURFACE('',#361,50.);
#26=CYLINDRICAL_SURFACE('',#364,0.7835);
#27=CIRCLE('',#351,50.);
#28=CIRCLE('',#352,1.2835);
#29=CIRCLE('',#353,50.);
#30=CIRCLE('',#355,50.);
#31=CIRCLE('',#356,1.2835);
#32=CIRCLE('',#357,50.);
#33=CIRCLE('',#359,50.);
#34=CIRCLE('',#362,50.);
#35=CIRCLE('',#365,0.7835);
#36=CIRCLE('',#366,0.7835);
#37=ORIENTED_EDGE('',*,*,#101,.T.);
#38=ORIENTED_EDGE('',*,*,#102,.F.);
#39=ORIENTED_EDGE('',*,*,#103,.F.);
#40=ORIENTED_EDGE('',*,*,#104,.F.);
#41=ORIENTED_EDGE('',*,*,#105,.F.);
#42=ORIENTED_EDGE('',*,*,#106,.F.);
#43=ORIENTED_EDGE('',*,*,#101,.F.);
#44=ORIENTED_EDGE('',*,*,#107,.F.);
#45=ORIENTED_EDGE('',*,*,#108,.T.);
#46=ORIENTED_EDGE('',*,*,#109,.T.);
#47=ORIENTED_EDGE('',*,*,#110,.T.);
#48=ORIENTED_EDGE('',*,*,#111,.F.);
#49=ORIENTED_EDGE('',*,*,#112,.F.);
#50=ORIENTED_EDGE('',*,*,#110,.F.);
#51=ORIENTED_EDGE('',*,*,#113,.T.);
#52=ORIENTED_EDGE('',*,*,#114,.T.);
#53=ORIENTED_EDGE('',*,*,#115,.T.);
#54=ORIENTED_EDGE('',*,*,#116,.F.);
#55=ORIENTED_EDGE('',*,*,#114,.F.);
#56=ORIENTED_EDGE('',*,*,#117,.T.);
#57=ORIENTED_EDGE('',*,*,#118,.F.);
#58=ORIENTED_EDGE('',*,*,#119,.F.);
#59=ORIENTED_EDGE('',*,*,#103,.T.);
#60=ORIENTED_EDGE('',*,*,#120,.F.);
#61=ORIENTED_EDGE('',*,*,#121,.F.);
#62=ORIENTED_EDGE('',*,*,#122,.T.);
#63=ORIENTED_EDGE('',*,*,#123,.F.);
#64=ORIENTED_EDGE('',*,*,#117,.F.);
#65=ORIENTED_EDGE('',*,*,#113,.F.);
#66=ORIENTED_EDGE('',*,*,#109,.F.);
#67=ORIENTED_EDGE('',*,*,#124,.F.);
#68=ORIENTED_EDGE('',*,*,#125,.T.);
#69=ORIENTED_EDGE('',*,*,#126,.F.);
#70=ORIENTED_EDGE('',*,*,#111,.T.);
#71=ORIENTED_EDGE('',*,*,#112,.T.);
#72=ORIENTED_EDGE('',*,*,#116,.T.);
#73=ORIENTED_EDGE('',*,*,#123,.T.);
#74=ORIENTED_EDGE('',*,*,#127,.T.);
#75=ORIENTED_EDGE('',*,*,#121,.T.);
#76=ORIENTED_EDGE('',*,*,#108,.F.);
#77=ORIENTED_EDGE('',*,*,#128,.F.);
#78=ORIENTED_EDGE('',*,*,#118,.T.);
#79=ORIENTED_EDGE('',*,*,#104,.T.);
#80=ORIENTED_EDGE('',*,*,#119,.T.);
#81=ORIENTED_EDGE('',*,*,#128,.T.);
#82=ORIENTED_EDGE('',*,*,#107,.T.);
#83=ORIENTED_EDGE('',*,*,#126,.T.);
#84=ORIENTED_EDGE('',*,*,#129,.T.);
#85=ORIENTED_EDGE('',*,*,#124,.T.);
#86=ORIENTED_EDGE('',*,*,#115,.F.);
#87=ORIENTED_EDGE('',*,*,#130,.F.);
#88=ORIENTED_EDGE('',*,*,#105,.T.);
#89=ORIENTED_EDGE('',*,*,#120,.T.);
#90=ORIENTED_EDGE('',*,*,#102,.T.);
#91=ORIENTED_EDGE('',*,*,#106,.T.);
#92=ORIENTED_EDGE('',*,*,#130,.T.);
#93=ORIENTED_EDGE('',*,*,#131,.T.);
#94=ORIENTED_EDGE('',*,*,#132,.T.);
#95=ORIENTED_EDGE('',*,*,#129,.F.);
#96=ORIENTED_EDGE('',*,*,#125,.F.);
#97=ORIENTED_EDGE('',*,*,#131,.F.);
#98=ORIENTED_EDGE('',*,*,#132,.F.);
#99=ORIENTED_EDGE('',*,*,#127,.F.);
#100=ORIENTED_EDGE('',*,*,#122,.F.);
#101=EDGE_CURVE('',#133,#134,#155,.T.);
#102=EDGE_CURVE('',#135,#134,#156,.T.);
#103=EDGE_CURVE('',#136,#135,#157,.T.);
#104=EDGE_CURVE('',#133,#136,#158,.T.);
#105=EDGE_CURVE('',#137,#138,#159,.T.);
#106=EDGE_CURVE('',#134,#137,#160,.T.);
#107=EDGE_CURVE('',#139,#133,#161,.T.);
#108=EDGE_CURVE('',#139,#140,#162,.T.);
#109=EDGE_CURVE('',#140,#141,#163,.T.);
#110=EDGE_CURVE('',#141,#142,#164,.T.);
#111=EDGE_CURVE('',#138,#142,#165,.T.);
#112=EDGE_CURVE('',#142,#143,#166,.T.);
#113=EDGE_CURVE('',#141,#144,#167,.T.);
#114=EDGE_CURVE('',#144,#143,#168,.T.);
#115=EDGE_CURVE('',#145,#146,#169,.T.);
#116=EDGE_CURVE('',#143,#146,#170,.T.);
#117=EDGE_CURVE('',#144,#147,#171,.T.);
#118=EDGE_CURVE('',#148,#147,#172,.T.);
#119=EDGE_CURVE('',#136,#148,#173,.T.);
#120=EDGE_CURVE('',#145,#135,#174,.T.);
#121=EDGE_CURVE('',#149,#140,#27,.T.);
#122=EDGE_CURVE('',#149,#150,#28,.T.);
#123=EDGE_CURVE('',#147,#150,#29,.T.);
#124=EDGE_CURVE('',#151,#146,#30,.T.);
#125=EDGE_CURVE('',#151,#152,#31,.F.);
#126=EDGE_CURVE('',#138,#152,#32,.T.);
#127=EDGE_CURVE('',#150,#149,#22,.T.);
#128=EDGE_CURVE('',#148,#139,#33,.T.);
#129=EDGE_CURVE('',#152,#151,#23,.T.);
#130=EDGE_CURVE('',#137,#145,#34,.T.);
#131=EDGE_CURVE('',#153,#153,#35,.T.);
#132=EDGE_CURVE('',#154,#154,#36,.F.);
#133=VERTEX_POINT('',#440);
#134=VERTEX_POINT('',#441);
#135=VERTEX_POINT('',#443);
#136=VERTEX_POINT('',#445);
#137=VERTEX_POINT('',#449);
#138=VERTEX_POINT('',#450);
#139=VERTEX_POINT('',#453);
#140=VERTEX_POINT('',#455);
#141=VERTEX_POINT('',#457);
#142=VERTEX_POINT('',#459);
#143=VERTEX_POINT('',#463);
#144=VERTEX_POINT('',#465);
#145=VERTEX_POINT('',#469);
#146=VERTEX_POINT('',#470);
#147=VERTEX_POINT('',#473);
#148=VERTEX_POINT('',#475);
#149=VERTEX_POINT('',#480);
#150=VERTEX_POINT('',#482);
#151=VERTEX_POINT('',#486);
#152=VERTEX_POINT('',#488);
#153=VERTEX_POINT('',#508);
#154=VERTEX_POINT('',#510);
#155=LINE('',#439,#175);
#156=LINE('',#442,#176);
#157=LINE('',#444,#177);
#158=LINE('',#446,#178);
#159=LINE('',#448,#179);
#160=LINE('',#451,#180);
#161=LINE('',#452,#181);
#162=LINE('',#454,#182);
#163=LINE('',#456,#183);
#164=LINE('',#458,#184);
#165=LINE('',#460,#185);
#166=LINE('',#462,#186);
#167=LINE('',#464,#187);
#168=LINE('',#466,#188);
#169=LINE('',#468,#189);
#170=LINE('',#471,#190);
#171=LINE('',#472,#191);
#172=LINE('',#474,#192);
#173=LINE('',#476,#193);
#174=LINE('',#477,#194);
#175=VECTOR('',#373,1000.);
#176=VECTOR('',#374,1000.);
#177=VECTOR('',#375,1000.);
#178=VECTOR('',#376,1000.);
#179=VECTOR('',#379,1000.);
#180=VECTOR('',#380,1000.);
#181=VECTOR('',#381,1000.);
#182=VECTOR('',#382,1000.);
#183=VECTOR('',#383,1000.);
#184=VECTOR('',#384,1000.);
#185=VECTOR('',#385,1000.);
#186=VECTOR('',#388,1000.);
#187=VECTOR('',#389,1000.);
#188=VECTOR('',#390,1000.);
#189=VECTOR('',#393,1000.);
#190=VECTOR('',#394,1000.);
#191=VECTOR('',#395,1000.);
#192=VECTOR('',#396,1000.);
#193=VECTOR('',#397,1000.);
#194=VECTOR('',#398,1000.);
#195=EDGE_LOOP('',(#37,#38,#39,#40));
#196=EDGE_LOOP('',(#41,#42,#43,#44,#45,#46,#47,#48));
#197=EDGE_LOOP('',(#49,#50,#51,#52));
#198=EDGE_LOOP('',(#53,#54,#55,#56,#57,#58,#59,#60));
#199=EDGE_LOOP('',(#61,#62,#63,#64,#65,#66));
#200=EDGE_LOOP('',(#67,#68,#69,#70,#71,#72));
#201=EDGE_LOOP('',(#73,#74,#75,#76,#77,#78));
#202=EDGE_LOOP('',(#79,#80,#81,#82));
#203=EDGE_LOOP('',(#83,#84,#85,#86,#87,#88));
#204=EDGE_LOOP('',(#89,#90,#91,#92));
#205=EDGE_LOOP('',(#93));
#206=EDGE_LOOP('',(#94));
#207=EDGE_LOOP('',(#95,#96));
#208=EDGE_LOOP('',(#97));
#209=EDGE_LOOP('',(#98));
#210=EDGE_LOOP('',(#99,#100));
#211=FACE_BOUND('',#195,.T.);
#212=FACE_BOUND('',#196,.T.);
#213=FACE_BOUND('',#197,.T.);
#214=FACE_BOUND('',#198,.T.);
#215=FACE_BOUND('',#199,.T.);
#216=FACE_BOUND('',#200,.T.);
#217=FACE_BOUND('',#201,.T.);
#218=FACE_BOUND('',#202,.T.);
#219=FACE_BOUND('',#203,.T.);
#220=FACE_BOUND('',#204,.T.);
#221=FACE_BOUND('',#205,.T.);
#222=FACE_BOUND('',#206,.T.);
#223=FACE_BOUND('',#207,.T.);
#224=FACE_BOUND('',#208,.T.);
#225=FACE_BOUND('',#209,.T.);
#226=FACE_BOUND('',#210,.T.);
#227=PLANE('',#346);
#228=PLANE('',#347);
#229=PLANE('',#348);
#230=PLANE('',#349);
#231=PLANE('',#350);
#232=PLANE('',#354);
#233=PLANE('',#360);
#234=PLANE('',#363);
#235=STYLED_ITEM('',(#248),#328);
#236=STYLED_ITEM('',(#249),#329);
#237=STYLED_ITEM('',(#250),#330);
#238=STYLED_ITEM('',(#251),#331);
#239=STYLED_ITEM('',(#252),#332);
#240=STYLED_ITEM('',(#253),#333);
#241=STYLED_ITEM('',(#254),#334);
#242=STYLED_ITEM('',(#255),#335);
#243=STYLED_ITEM('',(#256),#336);
#244=STYLED_ITEM('',(#257),#337);
#245=STYLED_ITEM('',(#258),#338);
#246=STYLED_ITEM('',(#259),#339);
#247=STYLED_ITEM('',(#260),#340);
#248=PRESENTATION_STYLE_ASSIGNMENT((#261));
#249=PRESENTATION_STYLE_ASSIGNMENT((#262));
#250=PRESENTATION_STYLE_ASSIGNMENT((#263));
#251=PRESENTATION_STYLE_ASSIGNMENT((#264));
#252=PRESENTATION_STYLE_ASSIGNMENT((#265));
#253=PRESENTATION_STYLE_ASSIGNMENT((#266));
#254=PRESENTATION_STYLE_ASSIGNMENT((#267));
#255=PRESENTATION_STYLE_ASSIGNMENT((#268));
#256=PRESENTATION_STYLE_ASSIGNMENT((#269));
#257=PRESENTATION_STYLE_ASSIGNMENT((#270));
#258=PRESENTATION_STYLE_ASSIGNMENT((#271));
#259=PRESENTATION_STYLE_ASSIGNMENT((#272));
#260=PRESENTATION_STYLE_ASSIGNMENT((#273));
#261=SURFACE_STYLE_USAGE(.BOTH.,#274);
#262=SURFACE_STYLE_USAGE(.BOTH.,#275);
#263=SURFACE_STYLE_USAGE(.BOTH.,#276);
#264=SURFACE_STYLE_USAGE(.BOTH.,#277);
#265=SURFACE_STYLE_USAGE(.BOTH.,#278);
#266=SURFACE_STYLE_USAGE(.BOTH.,#279);
#267=SURFACE_STYLE_USAGE(.BOTH.,#280);
#268=SURFACE_STYLE_USAGE(.BOTH.,#281);
#269=SURFACE_STYLE_USAGE(.BOTH.,#282);
#270=SURFACE_STYLE_USAGE(.BOTH.,#283);
#271=SURFACE_STYLE_USAGE(.BOTH.,#284);
#272=SURFACE_STYLE_USAGE(.BOTH.,#285);
#273=SURFACE_STYLE_USAGE(.BOTH.,#286);
#274=SURFACE_SIDE_STYLE('',(#287));
#275=SURFACE_SIDE_STYLE('',(#288));
#276=SURFACE_SIDE_STYLE('',(#289));
#277=SURFACE_SIDE_STYLE('',(#290));
#278=SURFACE_SIDE_STYLE('',(#291));
#279=SURFACE_SIDE_STYLE('',(#292));
#280=SURFACE_SIDE_STYLE('',(#293));
#281=SURFACE_SIDE_STYLE('',(#294));
#282=SURFACE_SIDE_STYLE('',(#295));
#283=SURFACE_SIDE_STYLE('',(#296));
#284=SURFACE_SIDE_STYLE('',(#297));
#285=SURFACE_SIDE_STYLE('',(#298));
#286=SURFACE_SIDE_STYLE('',(#299));
#287=SURFACE_STYLE_FILL_AREA(#300);
#288=SURFACE_STYLE_FILL_AREA(#301);
#289=SURFACE_STYLE_FILL_AREA(#302);
#290=SURFACE_STYLE_FILL_AREA(#303);
#291=SURFACE_STYLE_FILL_AREA(#304);
#292=SURFACE_STYLE_FILL_AREA(#305);
#293=SURFACE_STYLE_FILL_AREA(#306);
#294=SURFACE_STYLE_FILL_AREA(#307);
#295=SURFACE_STYLE_FILL_AREA(#308);
#296=SURFACE_STYLE_FILL_AREA(#309);
#297=SURFACE_STYLE_FILL_AREA(#310);
#298=SURFACE_STYLE_FILL_AREA(#311);
#299=SURFACE_STYLE_FILL_AREA(#312);
#300=FILL_AREA_STYLE('',(#313));
#301=FILL_AREA_STYLE('',(#314));
#302=FILL_AREA_STYLE('',(#315));
#303=FILL_AREA_STYLE('',(#316));
#304=FILL_AREA_STYLE('',(#317));
#305=FILL_AREA_STYLE('',(#318));
#306=FILL_AREA_STYLE('',(#319));
#307=FILL_AREA_STYLE('',(#320));
#308=FILL_AREA_STYLE('',(#321));
#309=FILL_AREA_STYLE('',(#322));
#310=FILL_AREA_STYLE('',(#323));
#311=FILL_AREA_STYLE('',(#324));
#312=FILL_AREA_STYLE('',(#325));
#313=FILL_AREA_STYLE_COLOUR('',#326);
#314=FILL_AREA_STYLE_COLOUR('',#326);
#315=FILL_AREA_STYLE_COLOUR('',#326);
#316=FILL_AREA_STYLE_COLOUR('',#326);
#317=FILL_AREA_STYLE_COLOUR('',#326);
#318=FILL_AREA_STYLE_COLOUR('',#326);
#319=FILL_AREA_STYLE_COLOUR('',#326);
#320=FILL_AREA_STYLE_COLOUR('',#326);
#321=FILL_AREA_STYLE_COLOUR('',#326);
#322=FILL_AREA_STYLE_COLOUR('',#326);
#323=FILL_AREA_STYLE_COLOUR('',#327);
#324=FILL_AREA_STYLE_COLOUR('',#326);
#325=FILL_AREA_STYLE_COLOUR('',#326);
#326=COLOUR_RGB('',0.550000011920929,0.311243504285812,0.21841649711132);
#327=COLOUR_RGB('',0.1875,0.75,0.581249892711639);
#328=ADVANCED_FACE('',(#211),#227,.T.);
#329=ADVANCED_FACE('',(#212),#228,.T.);
#330=ADVANCED_FACE('',(#213),#229,.T.);
#331=ADVANCED_FACE('',(#214),#230,.T.);
#332=ADVANCED_FACE('',(#215),#231,.F.);
#333=ADVANCED_FACE('',(#216),#232,.T.);
#334=ADVANCED_FACE('',(#217),#24,.F.);
#335=ADVANCED_FACE('',(#218),#233,.T.);
#336=ADVANCED_FACE('',(#219),#25,.F.);
#337=ADVANCED_FACE('',(#220),#234,.T.);
#338=ADVANCED_FACE('',(#221,#222),#26,.F.);
#339=ADVANCED_FACE('',(#223,#224),#20,.F.);
#340=ADVANCED_FACE('',(#225,#226),#21,.F.);
#341=CLOSED_SHELL('',(#328,#329,#330,#331,#332,#333,#334,#335,#336,#337,
#338,#339,#340));
#342=MANIFOLD_SOLID_BREP('',#341);
#343=SHAPE_DEFINITION_REPRESENTATION(#519,#344);
#344=SHAPE_REPRESENTATION('7466302',(#345),#514);
#345=AXIS2_PLACEMENT_3D('',#437,#369,#370);
#346=AXIS2_PLACEMENT_3D('',#438,#371,#372);
#347=AXIS2_PLACEMENT_3D('',#447,#377,#378);
#348=AXIS2_PLACEMENT_3D('',#461,#386,#387);
#349=AXIS2_PLACEMENT_3D('',#467,#391,#392);
#350=AXIS2_PLACEMENT_3D('',#478,#399,#400);
#351=AXIS2_PLACEMENT_3D('',#479,#401,#402);
#352=AXIS2_PLACEMENT_3D('',#481,#403,#404);
#353=AXIS2_PLACEMENT_3D('',#483,#405,#406);
#354=AXIS2_PLACEMENT_3D('',#484,#407,#408);
#355=AXIS2_PLACEMENT_3D('',#485,#409,#410);
#356=AXIS2_PLACEMENT_3D('',#487,#411,#412);
#357=AXIS2_PLACEMENT_3D('',#489,#413,#414);
#358=AXIS2_PLACEMENT_3D('',#490,#415,#416);
#359=AXIS2_PLACEMENT_3D('',#496,#417,#418);
#360=AXIS2_PLACEMENT_3D('',#497,#419,#420);
#361=AXIS2_PLACEMENT_3D('',#498,#421,#422);
#362=AXIS2_PLACEMENT_3D('',#504,#423,#424);
#363=AXIS2_PLACEMENT_3D('',#505,#425,#426);
#364=AXIS2_PLACEMENT_3D('',#506,#427,#428);
#365=AXIS2_PLACEMENT_3D('',#507,#429,#430);
#366=AXIS2_PLACEMENT_3D('',#509,#431,#432);
#367=AXIS2_PLACEMENT_3D('',#511,#433,#434);
#368=AXIS2_PLACEMENT_3D('',#512,#435,#436);
#369=DIRECTION('',(0.,0.,1.));
#370=DIRECTION('',(1.,0.,0.));
#371=DIRECTION('',(-1.73472347597681E-16,0.,1.));
#372=DIRECTION('',(1.,0.,1.73472347597681E-16));
#373=DIRECTION('',(0.,1.,0.));
#374=DIRECTION('',(1.,0.,0.));
#375=DIRECTION('',(0.,1.,0.));
#376=DIRECTION('',(-1.,0.,0.));
#377=DIRECTION('',(1.,0.,0.));
#378=DIRECTION('',(0.,0.,-1.));
#379=DIRECTION('',(0.,1.,0.));
#380=DIRECTION('',(0.,0.,-1.));
#381=DIRECTION('',(0.,0.,1.));
#382=DIRECTION('',(0.,-1.,0.));
#383=DIRECTION('',(0.,0.,-1.));
#384=DIRECTION('',(0.,1.,0.));
#385=DIRECTION('',(0.,0.,-1.));
#386=DIRECTION('',(1.22464679914735E-16,0.,-1.));
#387=DIRECTION('',(-1.,0.,-1.22464679914735E-16));
#388=DIRECTION('',(-1.,0.,-1.22464679914735E-16));
#389=DIRECTION('',(-1.,0.,-1.22464679914735E-16));
#390=DIRECTION('',(0.,1.,0.));
#391=DIRECTION('',(-1.,0.,0.));
#392=DIRECTION('',(0.,0.,1.));
#393=DIRECTION('',(0.,1.,0.));
#394=DIRECTION('',(0.,0.,1.));
#395=DIRECTION('',(0.,0.,1.));
#396=DIRECTION('',(0.,-1.,0.));
#397=DIRECTION('',(0.,0.,-1.));
#398=DIRECTION('',(0.,0.,1.));
#399=DIRECTION('',(0.,1.,0.));
#400=DIRECTION('',(0.,0.,1.));
#401=DIRECTION('',(0.,-1.,0.));
#402=DIRECTION('',(1.,0.,0.));
#403=DIRECTION('',(0.,1.,0.));
#404=DIRECTION('',(0.,0.,1.));
#405=DIRECTION('',(0.,-1.,0.));
#406=DIRECTION('',(1.,0.,0.));
#407=DIRECTION('',(0.,1.,0.));
#408=DIRECTION('',(0.,0.,1.));
#409=DIRECTION('',(0.,1.,0.));
#410=DIRECTION('',(1.,0.,0.));
#411=DIRECTION('',(0.,1.,0.));
#412=DIRECTION('',(0.,0.,1.));
#413=DIRECTION('',(0.,1.,0.));
#414=DIRECTION('',(1.,0.,0.));
#415=DIRECTION('',(0.,-1.,0.));
#416=DIRECTION('',(0.,0.,-1.));
#417=DIRECTION('',(0.,-1.,0.));
#418=DIRECTION('',(1.,0.,0.));
#419=DIRECTION('',(0.,-1.,0.));
#420=DIRECTION('',(0.,0.,-1.));
#421=DIRECTION('',(0.,1.,0.));
#422=DIRECTION('',(0.,0.,1.));
#423=DIRECTION('',(0.,1.,0.));
#424=DIRECTION('',(1.,0.,0.));
#425=DIRECTION('',(0.,1.,0.));
#426=DIRECTION('',(0.,0.,1.));
#427=DIRECTION('',(0.,1.,0.));
#428=DIRECTION('',(0.,0.,-1.));
#429=DIRECTION('',(0.,1.,0.));
#430=DIRECTION('',(0.,0.,1.));
#431=DIRECTION('',(0.,1.,0.));
#432=DIRECTION('',(0.,0.,1.));
#433=DIRECTION('',(0.,1.,0.));
#434=DIRECTION('',(0.,0.,1.));
#435=DIRECTION('',(0.,-1.,0.));
#436=DIRECTION('',(0.,0.,-1.));
#437=CARTESIAN_POINT('',(0.,0.,0.));
#438=CARTESIAN_POINT('',(-2.5,-3.5,5.));
#439=CARTESIAN_POINT('',(2.5,-3.5,5.));
#440=CARTESIAN_POINT('',(2.5,-3.,5.));
#441=CARTESIAN_POINT('',(2.5,3.,5.));
#442=CARTESIAN_POINT('',(-2.5,3.,5.));
#443=CARTESIAN_POINT('',(-2.5,3.,5.));
#444=CARTESIAN_POINT('',(-2.5,-3.5,5.));
#445=CARTESIAN_POINT('',(-2.5,-3.,5.));
#446=CARTESIAN_POINT('',(-2.5,-3.,5.));
#447=CARTESIAN_POINT('',(2.5,-3.5,5.));
#448=CARTESIAN_POINT('',(2.5,3.,4.50074566965906));
#449=CARTESIAN_POINT('',(2.5,3.,4.50074566965906));
#450=CARTESIAN_POINT('',(2.5,3.5,4.50074566965906));
#451=CARTESIAN_POINT('',(2.5,3.,5.));
#452=CARTESIAN_POINT('',(2.5,-3.,5.));
#453=CARTESIAN_POINT('',(2.49999999999996,-3.,4.50074566965906));
#454=CARTESIAN_POINT('',(2.49999999999996,-3.,4.50074566965906));
#455=CARTESIAN_POINT('',(2.49999999999996,-3.5,4.50074566965906));
#456=CARTESIAN_POINT('',(2.5,-3.5,5.));
#457=CARTESIAN_POINT('',(2.5,-3.5,-3.04324729588117E-16));
#458=CARTESIAN_POINT('',(2.5,-3.5,-3.04324729588117E-16));
#459=CARTESIAN_POINT('',(2.5,3.5,-3.04324729588117E-16));
#460=CARTESIAN_POINT('',(2.5,3.5,5.));
#461=CARTESIAN_POINT('',(2.5,-3.5,-3.04324729588117E-16));
#462=CARTESIAN_POINT('',(2.5,3.5,-3.04324729588117E-16));
#463=CARTESIAN_POINT('',(-2.5,3.5,-9.16648129161794E-16));
#464=CARTESIAN_POINT('',(2.5,-3.5,-3.04324729588117E-16));
#465=CARTESIAN_POINT('',(-2.5,-3.5,-9.16648129161794E-16));
#466=CARTESIAN_POINT('',(-2.5,-3.5,-9.16648129161794E-16));
#467=CARTESIAN_POINT('',(-2.5,-3.5,-9.16648129161794E-16));
#468=CARTESIAN_POINT('',(-2.50000000000002,3.,4.50074566965906));
#469=CARTESIAN_POINT('',(-2.50000000000002,3.,4.50074566965906));
#470=CARTESIAN_POINT('',(-2.50000000000002,3.5,4.50074566965906));
#471=CARTESIAN_POINT('',(-2.5,3.5,-9.16648129161794E-16));
#472=CARTESIAN_POINT('',(-2.5,-3.5,-9.16648129161794E-16));
#473=CARTESIAN_POINT('',(-2.5,-3.5,4.50074566965906));
#474=CARTESIAN_POINT('',(-2.5,-3.,4.50074566965906));
#475=CARTESIAN_POINT('',(-2.5,-3.,4.50074566965906));
#476=CARTESIAN_POINT('',(-2.5,-3.,5.));
#477=CARTESIAN_POINT('',(-2.5,3.,4.50074566965906));
#478=CARTESIAN_POINT('',(0.,-3.5,0.));
#479=CARTESIAN_POINT('',(0.,-3.5,54.4382065582545));
#480=CARTESIAN_POINT('',(0.773566488465744,-3.5,4.44419096750683));
#481=CARTESIAN_POINT('',(2.16840434497101E-16,-3.5,3.42));
#482=CARTESIAN_POINT('',(-0.773566488465744,-3.5,4.44419096750683));
#483=CARTESIAN_POINT('',(0.,-3.5,54.4382065582545));
#484=CARTESIAN_POINT('',(0.,3.5,0.));
#485=CARTESIAN_POINT('',(0.,3.5,54.4382065582545));
#486=CARTESIAN_POINT('',(-0.773566488465744,3.5,4.44419096750683));
#487=CARTESIAN_POINT('',(2.16840434497101E-16,3.5,3.42));
#488=CARTESIAN_POINT('',(0.773566488465744,3.5,4.44419096750683));
#489=CARTESIAN_POINT('',(0.,3.5,54.4382065582545));
#490=CARTESIAN_POINT('',(0.,-3.,54.4382065582545));
#491=CARTESIAN_POINT('',(-0.773566488465744,-3.5,4.44419096750683));
#492=CARTESIAN_POINT('',(-0.537929371969724,-3.35507188601055,4.44054491158181));
#493=CARTESIAN_POINT('',(-0.00278428203474834,-3.11453894512547,4.43587316643552));
#494=CARTESIAN_POINT('',(0.537294285820168,-3.35468127760699,4.44053508477841));
#495=CARTESIAN_POINT('',(0.773566488465769,-3.49999999999994,4.44419096750683));
#496=CARTESIAN_POINT('',(0.,-3.,54.4382065582545));
#497=CARTESIAN_POINT('',(0.,-3.,54.4382065582545));
#498=CARTESIAN_POINT('',(0.,3.,54.4382065582545));
#499=CARTESIAN_POINT('',(0.773566488465744,3.5,4.44419096750683));
#500=CARTESIAN_POINT('',(0.537929371969724,3.35507188601055,4.44054491158181));
#501=CARTESIAN_POINT('',(0.00278428203474878,3.11453894512547,4.43587316643552));
#502=CARTESIAN_POINT('',(-0.537294285820168,3.35468127760699,4.44053508477841));
#503=CARTESIAN_POINT('',(-0.773566488465768,3.49999999999994,4.44419096750683));
#504=CARTESIAN_POINT('',(0.,3.,54.4382065582545));
#505=CARTESIAN_POINT('',(0.,3.,54.4382065582545));
#506=CARTESIAN_POINT('',(2.16840434497101E-16,-3.5,3.42));
#507=CARTESIAN_POINT('',(2.16840434497101E-16,3.,3.42));
#508=CARTESIAN_POINT('',(2.16840434497101E-16,3.,4.2035));
#509=CARTESIAN_POINT('',(2.16840434497101E-16,-3.,3.42));
#510=CARTESIAN_POINT('',(2.16840434497101E-16,-3.,4.2035));
#511=CARTESIAN_POINT('',(2.16840434497101E-16,3.,3.42));
#512=CARTESIAN_POINT('',(2.16840434497101E-16,-3.5,3.42));
#513=MECHANICAL_DESIGN_GEOMETRIC_PRESENTATION_REPRESENTATION('',(#235,#236,
#237,#238,#239,#240,#241,#242,#243,#244,#245,#246,#247),#514);
#514=(
GEOMETRIC_REPRESENTATION_CONTEXT(3)
GLOBAL_UNCERTAINTY_ASSIGNED_CONTEXT((#515))
GLOBAL_UNIT_ASSIGNED_CONTEXT((#518,#517,#516))
REPRESENTATION_CONTEXT('7466302','TOP_LEVEL_ASSEMBLY_PART')
);
#515=UNCERTAINTY_MEASURE_WITH_UNIT(LENGTH_MEASURE(0.005),#518,
'DISTANCE_ACCURACY_VALUE','Maximum Tolerance applied to model');
#516=(
NAMED_UNIT(*)
SI_UNIT($,.STERADIAN.)
SOLID_ANGLE_UNIT()
);
#517=(
NAMED_UNIT(*)
PLANE_ANGLE_UNIT()
SI_UNIT($,.RADIAN.)
);
#518=(
LENGTH_UNIT()
NAMED_UNIT(*)
SI_UNIT(.MILLI.,.METRE.)
);
#519=PRODUCT_DEFINITION_SHAPE('','',#520);
#520=PRODUCT_DEFINITION('','',#522,#521);
#521=PRODUCT_DEFINITION_CONTEXT('',#528,'design');
#522=PRODUCT_DEFINITION_FORMATION_WITH_SPECIFIED_SOURCE('','',#524,
 .NOT_KNOWN.);
#523=PRODUCT_RELATED_PRODUCT_CATEGORY('','',(#524));
#524=PRODUCT('7466302','7466302','7466302',(#526));
#525=PRODUCT_CATEGORY('','');
#526=PRODUCT_CONTEXT('',#528,'mechanical');
#527=APPLICATION_PROTOCOL_DEFINITION('international standard',
'automotive_design',2010,#528);
#528=APPLICATION_CONTEXT(
'core data for automotive mechanical design processes');
ENDSEC;
END-ISO-10303-21;
