ISO-10303-21;
HEADER;
/* Generated by software containing ST-Developer
 * from STEP Tools, Inc. (www.steptools.com) 
 */
/* OPTION: strings as raw bytes, not using required /X/ escapes */

FILE_DESCRIPTION(
/* description */ ('Unknown'),
/* implementation_level */ '2;1');

FILE_NAME(
/* name */ '7427620',
/* time_stamp */ '2021-10-21T07:30:36+02:00',
/* author */ ('Unknown'),
/* organization */ ('Unknown'),
/* preprocessor_version */ 'ST-DEVELOPER v16.7',
/* originating_system */ 'Solid Edge',
/* authorisation */ 'Unknown');

FILE_SCHEMA (('AUTOMOTIVE_DESIGN {1 0 10303 214 3 1 1}'));
ENDSEC;

DATA;
#10=PROPERTY_DEFINITION_REPRESENTATION(#14,#12);
#11=PROPERTY_DEFINITION_REPRESENTATION(#15,#13);
#12=REPRESENTATION('',(#16),#364);
#13=REPRESENTATION('',(#17),#364);
#14=PROPERTY_DEFINITION('pmi validation property','',#373);
#15=PROPERTY_DEFINITION('pmi validation property','',#373);
#16=VALUE_REPRESENTATION_ITEM('number of annotations',COUNT_MEASURE(0.));
#17=VALUE_REPRESENTATION_ITEM('number of views',COUNT_MEASURE(0.));
#18=CONTEXT_DEPENDENT_SHAPE_REPRESENTATION(#22,#375);
#19=CONTEXT_DEPENDENT_SHAPE_REPRESENTATION(#23,#377);
#20=NEXT_ASSEMBLY_USAGE_OCCURRENCE('Wire','Wire','Wire',#378,#379,'');
#21=NEXT_ASSEMBLY_USAGE_OCCURRENCE('Core','Core','Core',#378,#380,'');
#22=(
REPRESENTATION_RELATIONSHIP(' ',' ',#218,#219)
REPRESENTATION_RELATIONSHIP_WITH_TRANSFORMATION(#24)
SHAPE_REPRESENTATION_RELATIONSHIP()
);
#23=(
REPRESENTATION_RELATIONSHIP(' ',' ',#220,#219)
REPRESENTATION_RELATIONSHIP_WITH_TRANSFORMATION(#25)
SHAPE_REPRESENTATION_RELATIONSHIP()
);
#24=ITEM_DEFINED_TRANSFORMATION(' ',' ',#221,#235);
#25=ITEM_DEFINED_TRANSFORMATION(' ',' ',#221,#252);
#26=SHAPE_REPRESENTATION_RELATIONSHIP('','',#218,#28);
#27=SHAPE_REPRESENTATION_RELATIONSHIP('','',#220,#29);
#28=ADVANCED_BREP_SHAPE_REPRESENTATION('',(#212),#365);
#29=ADVANCED_BREP_SHAPE_REPRESENTATION('',(#213,#214),#366);
#30=PLANE('',#233);
#31=PLANE('',#234);
#32=PLANE('',#242);
#33=PLANE('',#243);
#34=PLANE('',#250);
#35=PLANE('',#251);
#36=TOROIDAL_SURFACE('',#225,0.5,0.325);
#37=TOROIDAL_SURFACE('',#229,0.499999999999997,0.325);
#38=ORIENTED_EDGE('',*,*,#66,.T.);
#39=ORIENTED_EDGE('',*,*,#67,.F.);
#40=ORIENTED_EDGE('',*,*,#67,.T.);
#41=ORIENTED_EDGE('',*,*,#68,.F.);
#42=ORIENTED_EDGE('',*,*,#68,.T.);
#43=ORIENTED_EDGE('',*,*,#69,.F.);
#44=ORIENTED_EDGE('',*,*,#69,.T.);
#45=ORIENTED_EDGE('',*,*,#70,.F.);
#46=ORIENTED_EDGE('',*,*,#70,.T.);
#47=ORIENTED_EDGE('',*,*,#71,.F.);
#48=ORIENTED_EDGE('',*,*,#66,.F.);
#49=ORIENTED_EDGE('',*,*,#71,.T.);
#50=ORIENTED_EDGE('',*,*,#72,.F.);
#51=ORIENTED_EDGE('',*,*,#73,.T.);
#52=ORIENTED_EDGE('',*,*,#74,.T.);
#53=ORIENTED_EDGE('',*,*,#75,.F.);
#54=ORIENTED_EDGE('',*,*,#72,.T.);
#55=ORIENTED_EDGE('',*,*,#74,.F.);
#56=ORIENTED_EDGE('',*,*,#73,.F.);
#57=ORIENTED_EDGE('',*,*,#75,.T.);
#58=ORIENTED_EDGE('',*,*,#76,.T.);
#59=ORIENTED_EDGE('',*,*,#77,.F.);
#60=ORIENTED_EDGE('',*,*,#78,.F.);
#61=ORIENTED_EDGE('',*,*,#79,.T.);
#62=ORIENTED_EDGE('',*,*,#76,.F.);
#63=ORIENTED_EDGE('',*,*,#78,.T.);
#64=ORIENTED_EDGE('',*,*,#77,.T.);
#65=ORIENTED_EDGE('',*,*,#79,.F.);
#66=EDGE_CURVE('',#80,#80,#94,.F.);
#67=EDGE_CURVE('',#81,#81,#95,.F.);
#68=EDGE_CURVE('',#82,#82,#96,.F.);
#69=EDGE_CURVE('',#83,#83,#97,.F.);
#70=EDGE_CURVE('',#84,#84,#98,.F.);
#71=EDGE_CURVE('',#85,#85,#99,.F.);
#72=EDGE_CURVE('',#86,#86,#100,.T.);
#73=EDGE_CURVE('',#87,#87,#101,.T.);
#74=EDGE_CURVE('',#88,#88,#102,.T.);
#75=EDGE_CURVE('',#89,#89,#103,.T.);
#76=EDGE_CURVE('',#90,#90,#104,.T.);
#77=EDGE_CURVE('',#91,#91,#105,.T.);
#78=EDGE_CURVE('',#92,#92,#106,.T.);
#79=EDGE_CURVE('',#93,#93,#107,.T.);
#80=VERTEX_POINT('',#320);
#81=VERTEX_POINT('',#322);
#82=VERTEX_POINT('',#325);
#83=VERTEX_POINT('',#328);
#84=VERTEX_POINT('',#331);
#85=VERTEX_POINT('',#334);
#86=VERTEX_POINT('',#340);
#87=VERTEX_POINT('',#342);
#88=VERTEX_POINT('',#345);
#89=VERTEX_POINT('',#347);
#90=VERTEX_POINT('',#352);
#91=VERTEX_POINT('',#354);
#92=VERTEX_POINT('',#357);
#93=VERTEX_POINT('',#359);
#94=CIRCLE('',#223,0.325);
#95=CIRCLE('',#224,0.325);
#96=CIRCLE('',#226,0.325);
#97=CIRCLE('',#228,0.325);
#98=CIRCLE('',#230,0.325);
#99=CIRCLE('',#232,0.325);
#100=CIRCLE('',#237,0.4);
#101=CIRCLE('',#238,0.4);
#102=CIRCLE('',#240,1.75);
#103=CIRCLE('',#241,1.75);
#104=CIRCLE('',#245,0.4);
#105=CIRCLE('',#246,0.4);
#106=CIRCLE('',#248,1.75);
#107=CIRCLE('',#249,1.75);
#108=EDGE_LOOP('',(#38));
#109=EDGE_LOOP('',(#39));
#110=EDGE_LOOP('',(#40));
#111=EDGE_LOOP('',(#41));
#112=EDGE_LOOP('',(#42));
#113=EDGE_LOOP('',(#43));
#114=EDGE_LOOP('',(#44));
#115=EDGE_LOOP('',(#45));
#116=EDGE_LOOP('',(#46));
#117=EDGE_LOOP('',(#47));
#118=EDGE_LOOP('',(#48));
#119=EDGE_LOOP('',(#49));
#120=EDGE_LOOP('',(#50));
#121=EDGE_LOOP('',(#51));
#122=EDGE_LOOP('',(#52));
#123=EDGE_LOOP('',(#53));
#124=EDGE_LOOP('',(#54));
#125=EDGE_LOOP('',(#55));
#126=EDGE_LOOP('',(#56));
#127=EDGE_LOOP('',(#57));
#128=EDGE_LOOP('',(#58));
#129=EDGE_LOOP('',(#59));
#130=EDGE_LOOP('',(#60));
#131=EDGE_LOOP('',(#61));
#132=EDGE_LOOP('',(#62));
#133=EDGE_LOOP('',(#63));
#134=EDGE_LOOP('',(#64));
#135=EDGE_LOOP('',(#65));
#136=FACE_BOUND('',#108,.T.);
#137=FACE_BOUND('',#109,.T.);
#138=FACE_BOUND('',#110,.T.);
#139=FACE_BOUND('',#111,.T.);
#140=FACE_BOUND('',#112,.T.);
#141=FACE_BOUND('',#113,.T.);
#142=FACE_BOUND('',#114,.T.);
#143=FACE_BOUND('',#115,.T.);
#144=FACE_BOUND('',#116,.T.);
#145=FACE_BOUND('',#117,.T.);
#146=FACE_BOUND('',#118,.T.);
#147=FACE_BOUND('',#119,.T.);
#148=FACE_BOUND('',#120,.T.);
#149=FACE_BOUND('',#121,.T.);
#150=FACE_BOUND('',#122,.T.);
#151=FACE_BOUND('',#123,.T.);
#152=FACE_BOUND('',#124,.T.);
#153=FACE_BOUND('',#125,.T.);
#154=FACE_BOUND('',#126,.T.);
#155=FACE_BOUND('',#127,.T.);
#156=FACE_BOUND('',#128,.T.);
#157=FACE_BOUND('',#129,.T.);
#158=FACE_BOUND('',#130,.T.);
#159=FACE_BOUND('',#131,.T.);
#160=FACE_BOUND('',#132,.T.);
#161=FACE_BOUND('',#133,.T.);
#162=FACE_BOUND('',#134,.T.);
#163=FACE_BOUND('',#135,.T.);
#164=CYLINDRICAL_SURFACE('',#222,0.325);
#165=CYLINDRICAL_SURFACE('',#227,0.325);
#166=CYLINDRICAL_SURFACE('',#231,0.325);
#167=CYLINDRICAL_SURFACE('',#236,0.4);
#168=CYLINDRICAL_SURFACE('',#239,1.75);
#169=CYLINDRICAL_SURFACE('',#244,0.4);
#170=CYLINDRICAL_SURFACE('',#247,1.75);
#171=ADVANCED_FACE('',(#136,#137),#164,.T.);
#172=ADVANCED_FACE('',(#138,#139),#36,.T.);
#173=ADVANCED_FACE('',(#140,#141),#165,.T.);
#174=ADVANCED_FACE('',(#142,#143),#37,.T.);
#175=ADVANCED_FACE('',(#144,#145),#166,.T.);
#176=ADVANCED_FACE('',(#146),#30,.T.);
#177=ADVANCED_FACE('',(#147),#31,.F.);
#178=ADVANCED_FACE('',(#148,#149),#167,.F.);
#179=ADVANCED_FACE('',(#150,#151),#168,.T.);
#180=ADVANCED_FACE('',(#152,#153),#32,.F.);
#181=ADVANCED_FACE('',(#154,#155),#33,.T.);
#182=ADVANCED_FACE('',(#156,#157),#169,.F.);
#183=ADVANCED_FACE('',(#158,#159),#170,.T.);
#184=ADVANCED_FACE('',(#160,#161),#34,.T.);
#185=ADVANCED_FACE('',(#162,#163),#35,.F.);
#186=CLOSED_SHELL('',(#171,#172,#173,#174,#175,#176,#177));
#187=CLOSED_SHELL('',(#178,#179,#180,#181));
#188=CLOSED_SHELL('',(#182,#183,#184,#185));
#189=STYLED_ITEM('',(#192),#212);
#190=STYLED_ITEM('',(#193),#213);
#191=STYLED_ITEM('',(#194),#214);
#192=PRESENTATION_STYLE_ASSIGNMENT((#195));
#193=PRESENTATION_STYLE_ASSIGNMENT((#196));
#194=PRESENTATION_STYLE_ASSIGNMENT((#197));
#195=SURFACE_STYLE_USAGE(.BOTH.,#198);
#196=SURFACE_STYLE_USAGE(.BOTH.,#199);
#197=SURFACE_STYLE_USAGE(.BOTH.,#200);
#198=SURFACE_SIDE_STYLE('',(#201));
#199=SURFACE_SIDE_STYLE('',(#202));
#200=SURFACE_SIDE_STYLE('',(#203));
#201=SURFACE_STYLE_FILL_AREA(#204);
#202=SURFACE_STYLE_FILL_AREA(#205);
#203=SURFACE_STYLE_FILL_AREA(#206);
#204=FILL_AREA_STYLE('',(#207));
#205=FILL_AREA_STYLE('',(#208));
#206=FILL_AREA_STYLE('',(#209));
#207=FILL_AREA_STYLE_COLOUR('',#210);
#208=FILL_AREA_STYLE_COLOUR('',#211);
#209=FILL_AREA_STYLE_COLOUR('',#211);
#210=COLOUR_RGB('',0.699999988079071,0.699999988079071,0.699999988079071);
#211=COLOUR_RGB('',0.5,0.5,0.5);
#212=MANIFOLD_SOLID_BREP('',#186);
#213=MANIFOLD_SOLID_BREP('',#187);
#214=MANIFOLD_SOLID_BREP('',#188);
#215=SHAPE_DEFINITION_REPRESENTATION(#374,#218);
#216=SHAPE_DEFINITION_REPRESENTATION(#373,#219);
#217=SHAPE_DEFINITION_REPRESENTATION(#376,#220);
#218=SHAPE_REPRESENTATION('Wire',(#221),#365);
#219=SHAPE_REPRESENTATION('7427620',(#221,#235,#252),#364);
#220=SHAPE_REPRESENTATION('Core',(#221),#366);
#221=AXIS2_PLACEMENT_3D('',#317,#253,#254);
#222=AXIS2_PLACEMENT_3D('',#318,#255,#256);
#223=AXIS2_PLACEMENT_3D('',#319,#257,#258);
#224=AXIS2_PLACEMENT_3D('',#321,#259,#260);
#225=AXIS2_PLACEMENT_3D('',#323,#261,#262);
#226=AXIS2_PLACEMENT_3D('',#324,#263,#264);
#227=AXIS2_PLACEMENT_3D('',#326,#265,#266);
#228=AXIS2_PLACEMENT_3D('',#327,#267,#268);
#229=AXIS2_PLACEMENT_3D('',#329,#269,#270);
#230=AXIS2_PLACEMENT_3D('',#330,#271,#272);
#231=AXIS2_PLACEMENT_3D('',#332,#273,#274);
#232=AXIS2_PLACEMENT_3D('',#333,#275,#276);
#233=AXIS2_PLACEMENT_3D('',#335,#277,#278);
#234=AXIS2_PLACEMENT_3D('',#336,#279,#280);
#235=AXIS2_PLACEMENT_3D('',#337,#281,#282);
#236=AXIS2_PLACEMENT_3D('',#338,#283,#284);
#237=AXIS2_PLACEMENT_3D('',#339,#285,#286);
#238=AXIS2_PLACEMENT_3D('',#341,#287,#288);
#239=AXIS2_PLACEMENT_3D('',#343,#289,#290);
#240=AXIS2_PLACEMENT_3D('',#344,#291,#292);
#241=AXIS2_PLACEMENT_3D('',#346,#293,#294);
#242=AXIS2_PLACEMENT_3D('',#348,#295,#296);
#243=AXIS2_PLACEMENT_3D('',#349,#297,#298);
#244=AXIS2_PLACEMENT_3D('',#350,#299,#300);
#245=AXIS2_PLACEMENT_3D('',#351,#301,#302);
#246=AXIS2_PLACEMENT_3D('',#353,#303,#304);
#247=AXIS2_PLACEMENT_3D('',#355,#305,#306);
#248=AXIS2_PLACEMENT_3D('',#356,#307,#308);
#249=AXIS2_PLACEMENT_3D('',#358,#309,#310);
#250=AXIS2_PLACEMENT_3D('',#360,#311,#312);
#251=AXIS2_PLACEMENT_3D('',#361,#313,#314);
#252=AXIS2_PLACEMENT_3D('',#362,#315,#316);
#253=DIRECTION('',(0.,0.,1.));
#254=DIRECTION('',(1.,0.,0.));
#255=DIRECTION('',(-1.39111746269191E-16,0.,-1.));
#256=DIRECTION('',(-1.,0.,1.39111746269191E-16));
#257=DIRECTION('',(-2.78223492538381E-16,0.,-1.));
#258=DIRECTION('',(1.,0.,-2.78223492538381E-16));
#259=DIRECTION('',(-1.39111746269191E-16,0.,-1.));
#260=DIRECTION('',(1.,0.,-1.39111746269191E-16));
#261=DIRECTION('',(0.,1.,0.));
#262=DIRECTION('',(0.,0.,1.));
#263=DIRECTION('',(1.,0.,-1.39111746269191E-16));
#264=DIRECTION('',(1.39111746269191E-16,0.,1.));
#265=DIRECTION('',(1.,0.,0.));
#266=DIRECTION('',(0.,0.,-1.));
#267=DIRECTION('',(1.,0.,-1.39111746269191E-16));
#268=DIRECTION('',(1.39111746269191E-16,0.,1.));
#269=DIRECTION('',(0.,1.,0.));
#270=DIRECTION('',(0.,0.,1.));
#271=DIRECTION('',(0.,0.,1.));
#272=DIRECTION('',(-1.,0.,0.));
#273=DIRECTION('',(-1.39111746269191E-16,0.,1.));
#274=DIRECTION('',(1.,0.,1.39111746269191E-16));
#275=DIRECTION('',(0.,0.,1.));
#276=DIRECTION('',(-1.,0.,0.));
#277=DIRECTION('',(-2.78223492538381E-16,0.,-1.));
#278=DIRECTION('',(-1.,0.,2.78223492538381E-16));
#279=DIRECTION('',(0.,0.,1.));
#280=DIRECTION('',(1.,0.,0.));
#281=DIRECTION('',(0.,0.,1.));
#282=DIRECTION('',(1.,0.,0.));
#283=DIRECTION('',(0.,0.,-1.));
#284=DIRECTION('',(-1.,0.,0.));
#285=DIRECTION('',(0.,0.,-1.));
#286=DIRECTION('',(1.,0.,0.));
#287=DIRECTION('',(0.,0.,-1.));
#288=DIRECTION('',(1.,0.,0.));
#289=DIRECTION('',(0.,0.,-1.));
#290=DIRECTION('',(-1.,0.,0.));
#291=DIRECTION('',(0.,0.,-1.));
#292=DIRECTION('',(1.,0.,0.));
#293=DIRECTION('',(0.,0.,-1.));
#294=DIRECTION('',(1.,0.,0.));
#295=DIRECTION('',(0.,0.,-1.));
#296=DIRECTION('',(-1.,0.,0.));
#297=DIRECTION('',(0.,0.,-1.));
#298=DIRECTION('',(-1.,0.,0.));
#299=DIRECTION('',(0.,0.,-1.));
#300=DIRECTION('',(-1.,0.,0.));
#301=DIRECTION('',(0.,0.,1.));
#302=DIRECTION('',(1.,0.,0.));
#303=DIRECTION('',(0.,0.,1.));
#304=DIRECTION('',(1.,0.,0.));
#305=DIRECTION('',(0.,0.,-1.));
#306=DIRECTION('',(-1.,0.,0.));
#307=DIRECTION('',(0.,0.,1.));
#308=DIRECTION('',(1.,0.,0.));
#309=DIRECTION('',(0.,0.,1.));
#310=DIRECTION('',(1.,0.,0.));
#311=DIRECTION('',(0.,0.,1.));
#312=DIRECTION('',(1.,0.,0.));
#313=DIRECTION('',(0.,0.,1.));
#314=DIRECTION('',(1.,0.,0.));
#315=DIRECTION('',(0.,0.,1.));
#316=DIRECTION('',(1.,0.,0.));
#317=CARTESIAN_POINT('',(0.,0.,0.));
#318=CARTESIAN_POINT('',(2.5,0.,6.175));
#319=CARTESIAN_POINT('',(2.5,0.,-25.));
#320=CARTESIAN_POINT('',(2.825,0.,-25.));
#321=CARTESIAN_POINT('',(2.5,0.,6.175));
#322=CARTESIAN_POINT('',(2.825,0.,6.175));
#323=CARTESIAN_POINT('',(2.,0.,6.175));
#324=CARTESIAN_POINT('',(2.00000000000001,0.,6.675));
#325=CARTESIAN_POINT('',(2.00000000000001,0.,7.));
#326=CARTESIAN_POINT('',(-2.,0.,6.675));
#327=CARTESIAN_POINT('',(-2.,0.,6.675));
#328=CARTESIAN_POINT('',(-2.,0.,7.));
#329=CARTESIAN_POINT('',(-2.,0.,6.175));
#330=CARTESIAN_POINT('',(-2.5,0.,6.175));
#331=CARTESIAN_POINT('',(-2.825,0.,6.175));
#332=CARTESIAN_POINT('',(-2.5,0.,-25.));
#333=CARTESIAN_POINT('',(-2.5,0.,-25.));
#334=CARTESIAN_POINT('',(-2.825,0.,-25.));
#335=CARTESIAN_POINT('',(2.5,0.,-25.));
#336=CARTESIAN_POINT('',(-2.5,0.,-25.));
#337=CARTESIAN_POINT('',(0.,0.,0.));
#338=CARTESIAN_POINT('',(2.5,0.,4.5));
#339=CARTESIAN_POINT('',(2.5,0.,4.5));
#340=CARTESIAN_POINT('',(2.9,0.,4.5));
#341=CARTESIAN_POINT('',(2.5,0.,0.));
#342=CARTESIAN_POINT('',(2.9,0.,0.));
#343=CARTESIAN_POINT('',(2.5,0.,4.5));
#344=CARTESIAN_POINT('',(2.5,0.,4.5));
#345=CARTESIAN_POINT('',(4.25,0.,4.5));
#346=CARTESIAN_POINT('',(2.5,0.,0.));
#347=CARTESIAN_POINT('',(4.25,0.,0.));
#348=CARTESIAN_POINT('',(2.5,0.,4.5));
#349=CARTESIAN_POINT('',(2.5,0.,0.));
#350=CARTESIAN_POINT('',(-2.5,0.,4.5));
#351=CARTESIAN_POINT('',(-2.5,0.,4.5));
#352=CARTESIAN_POINT('',(-2.1,0.,4.5));
#353=CARTESIAN_POINT('',(-2.5,0.,0.));
#354=CARTESIAN_POINT('',(-2.1,0.,0.));
#355=CARTESIAN_POINT('',(-2.5,0.,4.5));
#356=CARTESIAN_POINT('',(-2.5,0.,4.5));
#357=CARTESIAN_POINT('',(-0.750000000000002,0.,4.5));
#358=CARTESIAN_POINT('',(-2.5,0.,0.));
#359=CARTESIAN_POINT('',(-0.750000000000002,0.,0.));
#360=CARTESIAN_POINT('',(-2.5,0.,4.5));
#361=CARTESIAN_POINT('',(-2.5,0.,0.));
#362=CARTESIAN_POINT('',(-3.46944695195361E-15,0.,0.));
#363=MECHANICAL_DESIGN_GEOMETRIC_PRESENTATION_REPRESENTATION('',(#189,#190,
#191),#364);
#364=(
GEOMETRIC_REPRESENTATION_CONTEXT(3)
GLOBAL_UNCERTAINTY_ASSIGNED_CONTEXT((#367))
GLOBAL_UNIT_ASSIGNED_CONTEXT((#372,#371,#370))
REPRESENTATION_CONTEXT('7427620','TOP_LEVEL_ASSEMBLY_PART')
);
#365=(
GEOMETRIC_REPRESENTATION_CONTEXT(3)
GLOBAL_UNCERTAINTY_ASSIGNED_CONTEXT((#368))
GLOBAL_UNIT_ASSIGNED_CONTEXT((#372,#371,#370))
REPRESENTATION_CONTEXT('Wire','COMPONENT_PART')
);
#366=(
GEOMETRIC_REPRESENTATION_CONTEXT(3)
GLOBAL_UNCERTAINTY_ASSIGNED_CONTEXT((#369))
GLOBAL_UNIT_ASSIGNED_CONTEXT((#372,#371,#370))
REPRESENTATION_CONTEXT('Core','COMPONENT_PART')
);
#367=UNCERTAINTY_MEASURE_WITH_UNIT(LENGTH_MEASURE(0.005),#372,
'DISTANCE_ACCURACY_VALUE','Maximum Tolerance applied to model');
#368=UNCERTAINTY_MEASURE_WITH_UNIT(LENGTH_MEASURE(0.005),#372,
'DISTANCE_ACCURACY_VALUE','Maximum Tolerance applied to model');
#369=UNCERTAINTY_MEASURE_WITH_UNIT(LENGTH_MEASURE(0.005),#372,
'DISTANCE_ACCURACY_VALUE','Maximum Tolerance applied to model');
#370=(
NAMED_UNIT(*)
SI_UNIT($,.STERADIAN.)
SOLID_ANGLE_UNIT()
);
#371=(
NAMED_UNIT(*)
PLANE_ANGLE_UNIT()
SI_UNIT($,.RADIAN.)
);
#372=(
LENGTH_UNIT()
NAMED_UNIT(*)
SI_UNIT(.MILLI.,.METRE.)
);
#373=PRODUCT_DEFINITION_SHAPE('','',#378);
#374=PRODUCT_DEFINITION_SHAPE('','',#379);
#375=PRODUCT_DEFINITION_SHAPE(' ','NAUO PRDDFN',#20);
#376=PRODUCT_DEFINITION_SHAPE('','',#380);
#377=PRODUCT_DEFINITION_SHAPE(' ','NAUO PRDDFN',#21);
#378=PRODUCT_DEFINITION('','',#384,#381);
#379=PRODUCT_DEFINITION('','',#385,#382);
#380=PRODUCT_DEFINITION('','',#386,#383);
#381=PRODUCT_DEFINITION_CONTEXT('',#400,'design');
#382=PRODUCT_DEFINITION_CONTEXT('',#400,'design');
#383=PRODUCT_DEFINITION_CONTEXT('',#400,'design');
#384=PRODUCT_DEFINITION_FORMATION_WITH_SPECIFIED_SOURCE('','',#390,
 .NOT_KNOWN.);
#385=PRODUCT_DEFINITION_FORMATION_WITH_SPECIFIED_SOURCE('','',#391,
 .NOT_KNOWN.);
#386=PRODUCT_DEFINITION_FORMATION_WITH_SPECIFIED_SOURCE('','',#392,
 .NOT_KNOWN.);
#387=PRODUCT_RELATED_PRODUCT_CATEGORY('','',(#390));
#388=PRODUCT_RELATED_PRODUCT_CATEGORY('','',(#391));
#389=PRODUCT_RELATED_PRODUCT_CATEGORY('','',(#392));
#390=PRODUCT('7427620','7427620','7427620',(#396));
#391=PRODUCT('Wire','Wire','Wire',(#397));
#392=PRODUCT('Core','Core','Core',(#398));
#393=PRODUCT_CATEGORY('','');
#394=PRODUCT_CATEGORY('','');
#395=PRODUCT_CATEGORY('','');
#396=PRODUCT_CONTEXT('',#400,'mechanical');
#397=PRODUCT_CONTEXT('',#400,'mechanical');
#398=PRODUCT_CONTEXT('',#400,'mechanical');
#399=APPLICATION_PROTOCOL_DEFINITION('international standard',
'automotive_design',2010,#400);
#400=APPLICATION_CONTEXT(
'core data for automotive mechanical design processes');
ENDSEC;
END-ISO-10303-21;
