ISO-10303-21;
HEADER;
/* Generated by software containing ST-Developer
 * from STEP Tools, Inc. (www.steptools.com) 
 */
/* OPTION: strings as raw bytes, not using required /X/ escapes */

FILE_DESCRIPTION(
/* description */ ('Unknown'),
/* implementation_level */ '2;1');

FILE_NAME(
/* name */ '33402',
/* time_stamp */ '2020-05-29T09:06:31+02:00',
/* author */ ('Unknown'),
/* organization */ ('Unknown'),
/* preprocessor_version */ 'ST-DEVELOPER v16.7',
/* originating_system */ 'DEX',
/* authorisation */ $);

FILE_SCHEMA (('AUTOMOTIVE_DESIGN {1 0 10303 214 3 1 1}'));
ENDSEC;

DATA;
#10=PROPERTY_DEFINITION_REPRESENTATION(#14,#12);
#11=PROPERTY_DEFINITION_REPRESENTATION(#15,#13);
#12=REPRESENTATION('',(#16),#535);
#13=REPRESENTATION('',(#17),#535);
#14=PROPERTY_DEFINITION('pmi validation property','',#546);
#15=PROPERTY_DEFINITION('pmi validation property','',#546);
#16=VALUE_REPRESENTATION_ITEM('number of annotations',COUNT_MEASURE(0.));
#17=VALUE_REPRESENTATION_ITEM('number of views',COUNT_MEASURE(0.));
#18=DRAUGHTING_PRE_DEFINED_COLOUR('white');
#19=CONTEXT_DEPENDENT_SHAPE_REPRESENTATION(#25,#548);
#20=CONTEXT_DEPENDENT_SHAPE_REPRESENTATION(#26,#550);
#21=CONTEXT_DEPENDENT_SHAPE_REPRESENTATION(#27,#552);
#22=NEXT_ASSEMBLY_USAGE_OCCURRENCE('WE-FAS','WE-FAS','WE-FAS',#553,#554,
'');
#23=NEXT_ASSEMBLY_USAGE_OCCURRENCE('Adhesive_tape','Adhesive_tape',
'Adhesive_tape',#553,#555,'');
#24=NEXT_ASSEMBLY_USAGE_OCCURRENCE('Release_tape','Release_tape',
'Release_tape',#553,#556,'');
#25=(
REPRESENTATION_RELATIONSHIP(' ',' ',#346,#347)
REPRESENTATION_RELATIONSHIP_WITH_TRANSFORMATION(#28)
SHAPE_REPRESENTATION_RELATIONSHIP()
);
#26=(
REPRESENTATION_RELATIONSHIP(' ',' ',#348,#347)
REPRESENTATION_RELATIONSHIP_WITH_TRANSFORMATION(#29)
SHAPE_REPRESENTATION_RELATIONSHIP()
);
#27=(
REPRESENTATION_RELATIONSHIP(' ',' ',#349,#347)
REPRESENTATION_RELATIONSHIP_WITH_TRANSFORMATION(#30)
SHAPE_REPRESENTATION_RELATIONSHIP()
);
#28=ITEM_DEFINED_TRANSFORMATION(' ',' ',#350,#357);
#29=ITEM_DEFINED_TRANSFORMATION(' ',' ',#350,#364);
#30=ITEM_DEFINED_TRANSFORMATION(' ',' ',#350,#371);
#31=SHAPE_REPRESENTATION_RELATIONSHIP('','',#346,#34);
#32=SHAPE_REPRESENTATION_RELATIONSHIP('','',#348,#35);
#33=SHAPE_REPRESENTATION_RELATIONSHIP('','',#349,#36);
#34=ADVANCED_BREP_SHAPE_REPRESENTATION('',(#339),#536);
#35=ADVANCED_BREP_SHAPE_REPRESENTATION('',(#340),#537);
#36=ADVANCED_BREP_SHAPE_REPRESENTATION('',(#341),#538);
#37=ORIENTED_EDGE('',*,*,#109,.T.);
#38=ORIENTED_EDGE('',*,*,#110,.F.);
#39=ORIENTED_EDGE('',*,*,#111,.F.);
#40=ORIENTED_EDGE('',*,*,#112,.T.);
#41=ORIENTED_EDGE('',*,*,#113,.T.);
#42=ORIENTED_EDGE('',*,*,#114,.F.);
#43=ORIENTED_EDGE('',*,*,#115,.F.);
#44=ORIENTED_EDGE('',*,*,#110,.T.);
#45=ORIENTED_EDGE('',*,*,#116,.T.);
#46=ORIENTED_EDGE('',*,*,#117,.F.);
#47=ORIENTED_EDGE('',*,*,#118,.F.);
#48=ORIENTED_EDGE('',*,*,#114,.T.);
#49=ORIENTED_EDGE('',*,*,#119,.T.);
#50=ORIENTED_EDGE('',*,*,#112,.F.);
#51=ORIENTED_EDGE('',*,*,#120,.F.);
#52=ORIENTED_EDGE('',*,*,#117,.T.);
#53=ORIENTED_EDGE('',*,*,#111,.T.);
#54=ORIENTED_EDGE('',*,*,#115,.T.);
#55=ORIENTED_EDGE('',*,*,#118,.T.);
#56=ORIENTED_EDGE('',*,*,#120,.T.);
#57=ORIENTED_EDGE('',*,*,#109,.F.);
#58=ORIENTED_EDGE('',*,*,#119,.F.);
#59=ORIENTED_EDGE('',*,*,#116,.F.);
#60=ORIENTED_EDGE('',*,*,#113,.F.);
#61=ORIENTED_EDGE('',*,*,#121,.T.);
#62=ORIENTED_EDGE('',*,*,#122,.F.);
#63=ORIENTED_EDGE('',*,*,#123,.F.);
#64=ORIENTED_EDGE('',*,*,#124,.T.);
#65=ORIENTED_EDGE('',*,*,#125,.T.);
#66=ORIENTED_EDGE('',*,*,#126,.F.);
#67=ORIENTED_EDGE('',*,*,#127,.F.);
#68=ORIENTED_EDGE('',*,*,#122,.T.);
#69=ORIENTED_EDGE('',*,*,#128,.T.);
#70=ORIENTED_EDGE('',*,*,#129,.F.);
#71=ORIENTED_EDGE('',*,*,#130,.F.);
#72=ORIENTED_EDGE('',*,*,#126,.T.);
#73=ORIENTED_EDGE('',*,*,#131,.T.);
#74=ORIENTED_EDGE('',*,*,#124,.F.);
#75=ORIENTED_EDGE('',*,*,#132,.F.);
#76=ORIENTED_EDGE('',*,*,#129,.T.);
#77=ORIENTED_EDGE('',*,*,#123,.T.);
#78=ORIENTED_EDGE('',*,*,#127,.T.);
#79=ORIENTED_EDGE('',*,*,#130,.T.);
#80=ORIENTED_EDGE('',*,*,#132,.T.);
#81=ORIENTED_EDGE('',*,*,#121,.F.);
#82=ORIENTED_EDGE('',*,*,#131,.F.);
#83=ORIENTED_EDGE('',*,*,#128,.F.);
#84=ORIENTED_EDGE('',*,*,#125,.F.);
#85=ORIENTED_EDGE('',*,*,#133,.T.);
#86=ORIENTED_EDGE('',*,*,#134,.F.);
#87=ORIENTED_EDGE('',*,*,#135,.F.);
#88=ORIENTED_EDGE('',*,*,#136,.T.);
#89=ORIENTED_EDGE('',*,*,#137,.T.);
#90=ORIENTED_EDGE('',*,*,#138,.F.);
#91=ORIENTED_EDGE('',*,*,#139,.F.);
#92=ORIENTED_EDGE('',*,*,#134,.T.);
#93=ORIENTED_EDGE('',*,*,#140,.T.);
#94=ORIENTED_EDGE('',*,*,#141,.F.);
#95=ORIENTED_EDGE('',*,*,#142,.F.);
#96=ORIENTED_EDGE('',*,*,#138,.T.);
#97=ORIENTED_EDGE('',*,*,#143,.T.);
#98=ORIENTED_EDGE('',*,*,#136,.F.);
#99=ORIENTED_EDGE('',*,*,#144,.F.);
#100=ORIENTED_EDGE('',*,*,#141,.T.);
#101=ORIENTED_EDGE('',*,*,#135,.T.);
#102=ORIENTED_EDGE('',*,*,#139,.T.);
#103=ORIENTED_EDGE('',*,*,#142,.T.);
#104=ORIENTED_EDGE('',*,*,#144,.T.);
#105=ORIENTED_EDGE('',*,*,#133,.F.);
#106=ORIENTED_EDGE('',*,*,#143,.F.);
#107=ORIENTED_EDGE('',*,*,#140,.F.);
#108=ORIENTED_EDGE('',*,*,#137,.F.);
#109=EDGE_CURVE('',#145,#146,#169,.T.);
#110=EDGE_CURVE('',#147,#146,#170,.T.);
#111=EDGE_CURVE('',#148,#147,#171,.T.);
#112=EDGE_CURVE('',#148,#145,#172,.T.);
#113=EDGE_CURVE('',#146,#149,#173,.T.);
#114=EDGE_CURVE('',#150,#149,#174,.T.);
#115=EDGE_CURVE('',#147,#150,#175,.T.);
#116=EDGE_CURVE('',#149,#151,#176,.T.);
#117=EDGE_CURVE('',#152,#151,#177,.T.);
#118=EDGE_CURVE('',#150,#152,#178,.T.);
#119=EDGE_CURVE('',#151,#145,#179,.T.);
#120=EDGE_CURVE('',#152,#148,#180,.T.);
#121=EDGE_CURVE('',#153,#154,#181,.T.);
#122=EDGE_CURVE('',#155,#154,#182,.T.);
#123=EDGE_CURVE('',#156,#155,#183,.T.);
#124=EDGE_CURVE('',#156,#153,#184,.T.);
#125=EDGE_CURVE('',#154,#157,#185,.T.);
#126=EDGE_CURVE('',#158,#157,#186,.T.);
#127=EDGE_CURVE('',#155,#158,#187,.T.);
#128=EDGE_CURVE('',#157,#159,#188,.T.);
#129=EDGE_CURVE('',#160,#159,#189,.T.);
#130=EDGE_CURVE('',#158,#160,#190,.T.);
#131=EDGE_CURVE('',#159,#153,#191,.T.);
#132=EDGE_CURVE('',#160,#156,#192,.T.);
#133=EDGE_CURVE('',#161,#162,#193,.T.);
#134=EDGE_CURVE('',#163,#162,#194,.T.);
#135=EDGE_CURVE('',#164,#163,#195,.T.);
#136=EDGE_CURVE('',#164,#161,#196,.T.);
#137=EDGE_CURVE('',#162,#165,#197,.T.);
#138=EDGE_CURVE('',#166,#165,#198,.T.);
#139=EDGE_CURVE('',#163,#166,#199,.T.);
#140=EDGE_CURVE('',#165,#167,#200,.T.);
#141=EDGE_CURVE('',#168,#167,#201,.T.);
#142=EDGE_CURVE('',#166,#168,#202,.T.);
#143=EDGE_CURVE('',#167,#161,#203,.T.);
#144=EDGE_CURVE('',#168,#164,#204,.T.);
#145=VERTEX_POINT('',#455);
#146=VERTEX_POINT('',#456);
#147=VERTEX_POINT('',#458);
#148=VERTEX_POINT('',#460);
#149=VERTEX_POINT('',#464);
#150=VERTEX_POINT('',#466);
#151=VERTEX_POINT('',#470);
#152=VERTEX_POINT('',#472);
#153=VERTEX_POINT('',#482);
#154=VERTEX_POINT('',#483);
#155=VERTEX_POINT('',#485);
#156=VERTEX_POINT('',#487);
#157=VERTEX_POINT('',#491);
#158=VERTEX_POINT('',#493);
#159=VERTEX_POINT('',#497);
#160=VERTEX_POINT('',#499);
#161=VERTEX_POINT('',#509);
#162=VERTEX_POINT('',#510);
#163=VERTEX_POINT('',#512);
#164=VERTEX_POINT('',#514);
#165=VERTEX_POINT('',#518);
#166=VERTEX_POINT('',#520);
#167=VERTEX_POINT('',#524);
#168=VERTEX_POINT('',#526);
#169=LINE('',#454,#205);
#170=LINE('',#457,#206);
#171=LINE('',#459,#207);
#172=LINE('',#461,#208);
#173=LINE('',#463,#209);
#174=LINE('',#465,#210);
#175=LINE('',#467,#211);
#176=LINE('',#469,#212);
#177=LINE('',#471,#213);
#178=LINE('',#473,#214);
#179=LINE('',#475,#215);
#180=LINE('',#476,#216);
#181=LINE('',#481,#217);
#182=LINE('',#484,#218);
#183=LINE('',#486,#219);
#184=LINE('',#488,#220);
#185=LINE('',#490,#221);
#186=LINE('',#492,#222);
#187=LINE('',#494,#223);
#188=LINE('',#496,#224);
#189=LINE('',#498,#225);
#190=LINE('',#500,#226);
#191=LINE('',#502,#227);
#192=LINE('',#503,#228);
#193=LINE('',#508,#229);
#194=LINE('',#511,#230);
#195=LINE('',#513,#231);
#196=LINE('',#515,#232);
#197=LINE('',#517,#233);
#198=LINE('',#519,#234);
#199=LINE('',#521,#235);
#200=LINE('',#523,#236);
#201=LINE('',#525,#237);
#202=LINE('',#527,#238);
#203=LINE('',#529,#239);
#204=LINE('',#530,#240);
#205=VECTOR('',#376,1000.);
#206=VECTOR('',#377,1000.);
#207=VECTOR('',#378,1000.);
#208=VECTOR('',#379,1000.);
#209=VECTOR('',#382,1000.);
#210=VECTOR('',#383,1000.);
#211=VECTOR('',#384,1000.);
#212=VECTOR('',#387,1000.);
#213=VECTOR('',#388,1000.);
#214=VECTOR('',#389,1000.);
#215=VECTOR('',#392,1000.);
#216=VECTOR('',#393,1000.);
#217=VECTOR('',#402,1000.);
#218=VECTOR('',#403,1000.);
#219=VECTOR('',#404,1000.);
#220=VECTOR('',#405,1000.);
#221=VECTOR('',#408,1000.);
#222=VECTOR('',#409,1000.);
#223=VECTOR('',#410,1000.);
#224=VECTOR('',#413,1000.);
#225=VECTOR('',#414,1000.);
#226=VECTOR('',#415,1000.);
#227=VECTOR('',#418,1000.);
#228=VECTOR('',#419,1000.);
#229=VECTOR('',#428,1000.);
#230=VECTOR('',#429,1000.);
#231=VECTOR('',#430,1000.);
#232=VECTOR('',#431,1000.);
#233=VECTOR('',#434,1000.);
#234=VECTOR('',#435,1000.);
#235=VECTOR('',#436,1000.);
#236=VECTOR('',#439,1000.);
#237=VECTOR('',#440,1000.);
#238=VECTOR('',#441,1000.);
#239=VECTOR('',#444,1000.);
#240=VECTOR('',#445,1000.);
#241=EDGE_LOOP('',(#37,#38,#39,#40));
#242=EDGE_LOOP('',(#41,#42,#43,#44));
#243=EDGE_LOOP('',(#45,#46,#47,#48));
#244=EDGE_LOOP('',(#49,#50,#51,#52));
#245=EDGE_LOOP('',(#53,#54,#55,#56));
#246=EDGE_LOOP('',(#57,#58,#59,#60));
#247=EDGE_LOOP('',(#61,#62,#63,#64));
#248=EDGE_LOOP('',(#65,#66,#67,#68));
#249=EDGE_LOOP('',(#69,#70,#71,#72));
#250=EDGE_LOOP('',(#73,#74,#75,#76));
#251=EDGE_LOOP('',(#77,#78,#79,#80));
#252=EDGE_LOOP('',(#81,#82,#83,#84));
#253=EDGE_LOOP('',(#85,#86,#87,#88));
#254=EDGE_LOOP('',(#89,#90,#91,#92));
#255=EDGE_LOOP('',(#93,#94,#95,#96));
#256=EDGE_LOOP('',(#97,#98,#99,#100));
#257=EDGE_LOOP('',(#101,#102,#103,#104));
#258=EDGE_LOOP('',(#105,#106,#107,#108));
#259=FACE_BOUND('',#241,.T.);
#260=FACE_BOUND('',#242,.T.);
#261=FACE_BOUND('',#243,.T.);
#262=FACE_BOUND('',#244,.T.);
#263=FACE_BOUND('',#245,.T.);
#264=FACE_BOUND('',#246,.T.);
#265=FACE_BOUND('',#247,.T.);
#266=FACE_BOUND('',#248,.T.);
#267=FACE_BOUND('',#249,.T.);
#268=FACE_BOUND('',#250,.T.);
#269=FACE_BOUND('',#251,.T.);
#270=FACE_BOUND('',#252,.T.);
#271=FACE_BOUND('',#253,.T.);
#272=FACE_BOUND('',#254,.T.);
#273=FACE_BOUND('',#255,.T.);
#274=FACE_BOUND('',#256,.T.);
#275=FACE_BOUND('',#257,.T.);
#276=FACE_BOUND('',#258,.T.);
#277=PLANE('',#351);
#278=PLANE('',#352);
#279=PLANE('',#353);
#280=PLANE('',#354);
#281=PLANE('',#355);
#282=PLANE('',#356);
#283=PLANE('',#358);
#284=PLANE('',#359);
#285=PLANE('',#360);
#286=PLANE('',#361);
#287=PLANE('',#362);
#288=PLANE('',#363);
#289=PLANE('',#365);
#290=PLANE('',#366);
#291=PLANE('',#367);
#292=PLANE('',#368);
#293=PLANE('',#369);
#294=PLANE('',#370);
#295=ADVANCED_FACE('',(#259),#277,.F.);
#296=ADVANCED_FACE('',(#260),#278,.F.);
#297=ADVANCED_FACE('',(#261),#279,.F.);
#298=ADVANCED_FACE('',(#262),#280,.F.);
#299=ADVANCED_FACE('',(#263),#281,.T.);
#300=ADVANCED_FACE('',(#264),#282,.F.);
#301=ADVANCED_FACE('',(#265),#283,.F.);
#302=ADVANCED_FACE('',(#266),#284,.F.);
#303=ADVANCED_FACE('',(#267),#285,.F.);
#304=ADVANCED_FACE('',(#268),#286,.F.);
#305=ADVANCED_FACE('',(#269),#287,.T.);
#306=ADVANCED_FACE('',(#270),#288,.F.);
#307=ADVANCED_FACE('',(#271),#289,.F.);
#308=ADVANCED_FACE('',(#272),#290,.F.);
#309=ADVANCED_FACE('',(#273),#291,.F.);
#310=ADVANCED_FACE('',(#274),#292,.F.);
#311=ADVANCED_FACE('',(#275),#293,.T.);
#312=ADVANCED_FACE('',(#276),#294,.F.);
#313=CLOSED_SHELL('',(#295,#296,#297,#298,#299,#300));
#314=CLOSED_SHELL('',(#301,#302,#303,#304,#305,#306));
#315=CLOSED_SHELL('',(#307,#308,#309,#310,#311,#312));
#316=STYLED_ITEM('',(#319),#339);
#317=STYLED_ITEM('',(#320),#340);
#318=STYLED_ITEM('',(#321),#341);
#319=PRESENTATION_STYLE_ASSIGNMENT((#322));
#320=PRESENTATION_STYLE_ASSIGNMENT((#323));
#321=PRESENTATION_STYLE_ASSIGNMENT((#324));
#322=SURFACE_STYLE_USAGE(.BOTH.,#325);
#323=SURFACE_STYLE_USAGE(.BOTH.,#326);
#324=SURFACE_STYLE_USAGE(.BOTH.,#327);
#325=SURFACE_SIDE_STYLE('',(#328));
#326=SURFACE_SIDE_STYLE('',(#329));
#327=SURFACE_SIDE_STYLE('',(#330));
#328=SURFACE_STYLE_FILL_AREA(#331);
#329=SURFACE_STYLE_FILL_AREA(#332);
#330=SURFACE_STYLE_FILL_AREA(#333);
#331=FILL_AREA_STYLE('',(#334));
#332=FILL_AREA_STYLE('',(#335));
#333=FILL_AREA_STYLE('',(#336));
#334=FILL_AREA_STYLE_COLOUR('',#337);
#335=FILL_AREA_STYLE_COLOUR('',#18);
#336=FILL_AREA_STYLE_COLOUR('',#338);
#337=COLOUR_RGB('',0.200000002980232,0.200000002980232,0.200000002980232);
#338=COLOUR_RGB('',0.121568597853184,0.649999976158142,0.121568597853184);
#339=MANIFOLD_SOLID_BREP('',#313);
#340=MANIFOLD_SOLID_BREP('',#314);
#341=MANIFOLD_SOLID_BREP('',#315);
#342=SHAPE_DEFINITION_REPRESENTATION(#547,#346);
#343=SHAPE_DEFINITION_REPRESENTATION(#546,#347);
#344=SHAPE_DEFINITION_REPRESENTATION(#549,#348);
#345=SHAPE_DEFINITION_REPRESENTATION(#551,#349);
#346=SHAPE_REPRESENTATION('WE-FAS',(#350),#536);
#347=SHAPE_REPRESENTATION('33402',(#350,#357,#364,#371),#535);
#348=SHAPE_REPRESENTATION('Adhesive_tape',(#350),#537);
#349=SHAPE_REPRESENTATION('Release_tape',(#350),#538);
#350=AXIS2_PLACEMENT_3D('',#452,#372,#373);
#351=AXIS2_PLACEMENT_3D('',#453,#374,#375);
#352=AXIS2_PLACEMENT_3D('',#462,#380,#381);
#353=AXIS2_PLACEMENT_3D('',#468,#385,#386);
#354=AXIS2_PLACEMENT_3D('',#474,#390,#391);
#355=AXIS2_PLACEMENT_3D('',#477,#394,#395);
#356=AXIS2_PLACEMENT_3D('',#478,#396,#397);
#357=AXIS2_PLACEMENT_3D('',#479,#398,#399);
#358=AXIS2_PLACEMENT_3D('',#480,#400,#401);
#359=AXIS2_PLACEMENT_3D('',#489,#406,#407);
#360=AXIS2_PLACEMENT_3D('',#495,#411,#412);
#361=AXIS2_PLACEMENT_3D('',#501,#416,#417);
#362=AXIS2_PLACEMENT_3D('',#504,#420,#421);
#363=AXIS2_PLACEMENT_3D('',#505,#422,#423);
#364=AXIS2_PLACEMENT_3D('',#506,#424,#425);
#365=AXIS2_PLACEMENT_3D('',#507,#426,#427);
#366=AXIS2_PLACEMENT_3D('',#516,#432,#433);
#367=AXIS2_PLACEMENT_3D('',#522,#437,#438);
#368=AXIS2_PLACEMENT_3D('',#528,#442,#443);
#369=AXIS2_PLACEMENT_3D('',#531,#446,#447);
#370=AXIS2_PLACEMENT_3D('',#532,#448,#449);
#371=AXIS2_PLACEMENT_3D('',#533,#450,#451);
#372=DIRECTION('',(0.,0.,1.));
#373=DIRECTION('',(1.,0.,0.));
#374=DIRECTION('',(1.,0.,0.));
#375=DIRECTION('',(0.,0.,-1.));
#376=DIRECTION('',(0.,-1.,0.));
#377=DIRECTION('',(0.,0.,-1.));
#378=DIRECTION('',(0.,-1.,0.));
#379=DIRECTION('',(0.,0.,-1.));
#380=DIRECTION('',(-4.67265582754696E-17,1.,0.));
#381=DIRECTION('',(-1.,-4.67265582754696E-17,0.));
#382=DIRECTION('',(1.,4.67265582754696E-17,0.));
#383=DIRECTION('',(0.,0.,-1.));
#384=DIRECTION('',(1.,4.67265582754696E-17,0.));
#385=DIRECTION('',(-1.,0.,0.));
#386=DIRECTION('',(0.,0.,1.));
#387=DIRECTION('',(0.,1.,0.));
#388=DIRECTION('',(0.,0.,-1.));
#389=DIRECTION('',(0.,1.,0.));
#390=DIRECTION('',(-4.67265582754696E-17,-1.,0.));
#391=DIRECTION('',(1.,-4.67265582754696E-17,0.));
#392=DIRECTION('',(-1.,4.67265582754696E-17,0.));
#393=DIRECTION('',(-1.,4.67265582754696E-17,0.));
#394=DIRECTION('',(0.,0.,1.));
#395=DIRECTION('',(1.,0.,0.));
#396=DIRECTION('',(0.,0.,1.));
#397=DIRECTION('',(1.,0.,0.));
#398=DIRECTION('',(0.,0.,1.));
#399=DIRECTION('',(1.,0.,0.));
#400=DIRECTION('',(1.,0.,0.));
#401=DIRECTION('',(0.,0.,-1.));
#402=DIRECTION('',(0.,-1.,0.));
#403=DIRECTION('',(0.,0.,-1.));
#404=DIRECTION('',(0.,-1.,0.));
#405=DIRECTION('',(0.,0.,-1.));
#406=DIRECTION('',(-4.67265582754696E-17,1.,0.));
#407=DIRECTION('',(-1.,-4.67265582754696E-17,0.));
#408=DIRECTION('',(1.,4.67265582754696E-17,0.));
#409=DIRECTION('',(0.,0.,-1.));
#410=DIRECTION('',(1.,4.67265582754696E-17,0.));
#411=DIRECTION('',(-1.,0.,0.));
#412=DIRECTION('',(0.,0.,1.));
#413=DIRECTION('',(0.,1.,0.));
#414=DIRECTION('',(0.,0.,-1.));
#415=DIRECTION('',(0.,1.,0.));
#416=DIRECTION('',(-4.67265582754696E-17,-1.,0.));
#417=DIRECTION('',(1.,-4.67265582754696E-17,0.));
#418=DIRECTION('',(-1.,4.67265582754696E-17,0.));
#419=DIRECTION('',(-1.,4.67265582754696E-17,0.));
#420=DIRECTION('',(0.,0.,1.));
#421=DIRECTION('',(1.,0.,0.));
#422=DIRECTION('',(0.,0.,1.));
#423=DIRECTION('',(1.,0.,0.));
#424=DIRECTION('',(-3.08817951032801E-16,2.96926800373764E-16,1.));
#425=DIRECTION('',(1.,-8.32667268468867E-16,3.08817951032802E-16));
#426=DIRECTION('',(1.,0.,0.));
#427=DIRECTION('',(0.,0.,-1.));
#428=DIRECTION('',(0.,-1.,0.));
#429=DIRECTION('',(0.,0.,-1.));
#430=DIRECTION('',(0.,-1.,0.));
#431=DIRECTION('',(0.,0.,-1.));
#432=DIRECTION('',(-4.67265582754696E-17,1.,0.));
#433=DIRECTION('',(-1.,-4.67265582754696E-17,0.));
#434=DIRECTION('',(1.,4.67265582754696E-17,0.));
#435=DIRECTION('',(0.,0.,-1.));
#436=DIRECTION('',(1.,4.67265582754696E-17,0.));
#437=DIRECTION('',(-1.,0.,0.));
#438=DIRECTION('',(0.,0.,1.));
#439=DIRECTION('',(0.,1.,0.));
#440=DIRECTION('',(0.,0.,-1.));
#441=DIRECTION('',(0.,1.,0.));
#442=DIRECTION('',(-4.67265582754696E-17,-1.,0.));
#443=DIRECTION('',(1.,-4.67265582754696E-17,0.));
#444=DIRECTION('',(-1.,4.67265582754696E-17,0.));
#445=DIRECTION('',(-1.,4.67265582754696E-17,0.));
#446=DIRECTION('',(0.,0.,1.));
#447=DIRECTION('',(1.,0.,0.));
#448=DIRECTION('',(0.,0.,1.));
#449=DIRECTION('',(1.,0.,0.));
#450=DIRECTION('',(7.03404077583306E-16,2.94469020259553E-17,1.));
#451=DIRECTION('',(1.,4.9960036108132E-16,-7.03404077583306E-16));
#452=CARTESIAN_POINT('',(0.,0.,0.));
#453=CARTESIAN_POINT('',(-148.5,105.,0.2));
#454=CARTESIAN_POINT('',(-148.5,105.,0.));
#455=CARTESIAN_POINT('',(-148.5,105.,0.));
#456=CARTESIAN_POINT('',(-148.5,-105.,0.));
#457=CARTESIAN_POINT('',(-148.5,-105.,0.2));
#458=CARTESIAN_POINT('',(-148.5,-105.,0.2));
#459=CARTESIAN_POINT('',(-148.5,105.,0.2));
#460=CARTESIAN_POINT('',(-148.5,105.,0.2));
#461=CARTESIAN_POINT('',(-148.5,105.,0.2));
#462=CARTESIAN_POINT('',(-148.5,-105.,0.2));
#463=CARTESIAN_POINT('',(-148.5,-105.,0.));
#464=CARTESIAN_POINT('',(148.5,-105.,0.));
#465=CARTESIAN_POINT('',(148.5,-105.,0.2));
#466=CARTESIAN_POINT('',(148.5,-105.,0.2));
#467=CARTESIAN_POINT('',(-148.5,-105.,0.2));
#468=CARTESIAN_POINT('',(148.5,-105.,0.2));
#469=CARTESIAN_POINT('',(148.5,-105.,0.));
#470=CARTESIAN_POINT('',(148.5,105.,0.));
#471=CARTESIAN_POINT('',(148.5,105.,0.2));
#472=CARTESIAN_POINT('',(148.5,105.,0.2));
#473=CARTESIAN_POINT('',(148.5,-105.,0.2));
#474=CARTESIAN_POINT('',(148.5,105.,0.2));
#475=CARTESIAN_POINT('',(148.5,105.,0.));
#476=CARTESIAN_POINT('',(148.5,105.,0.2));
#477=CARTESIAN_POINT('',(-148.5,-105.,0.2));
#478=CARTESIAN_POINT('',(-148.5,-105.,0.));
#479=CARTESIAN_POINT('',(0.,0.,0.));
#480=CARTESIAN_POINT('',(-148.5,105.,0.03));
#481=CARTESIAN_POINT('',(-148.5,105.,0.));
#482=CARTESIAN_POINT('',(-148.5,105.,0.));
#483=CARTESIAN_POINT('',(-148.5,-105.,0.));
#484=CARTESIAN_POINT('',(-148.5,-105.,0.03));
#485=CARTESIAN_POINT('',(-148.5,-105.,0.03));
#486=CARTESIAN_POINT('',(-148.5,105.,0.03));
#487=CARTESIAN_POINT('',(-148.5,105.,0.03));
#488=CARTESIAN_POINT('',(-148.5,105.,0.03));
#489=CARTESIAN_POINT('',(-148.5,-105.,0.03));
#490=CARTESIAN_POINT('',(-148.5,-105.,0.));
#491=CARTESIAN_POINT('',(148.5,-105.,0.));
#492=CARTESIAN_POINT('',(148.5,-105.,0.03));
#493=CARTESIAN_POINT('',(148.5,-105.,0.03));
#494=CARTESIAN_POINT('',(-148.5,-105.,0.03));
#495=CARTESIAN_POINT('',(148.5,-105.,0.03));
#496=CARTESIAN_POINT('',(148.5,-105.,0.));
#497=CARTESIAN_POINT('',(148.5,105.,0.));
#498=CARTESIAN_POINT('',(148.5,105.,0.03));
#499=CARTESIAN_POINT('',(148.5,105.,0.03));
#500=CARTESIAN_POINT('',(148.5,-105.,0.03));
#501=CARTESIAN_POINT('',(148.5,105.,0.03));
#502=CARTESIAN_POINT('',(148.5,105.,0.));
#503=CARTESIAN_POINT('',(148.5,105.,0.03));
#504=CARTESIAN_POINT('',(-148.5,-105.,0.03));
#505=CARTESIAN_POINT('',(-148.5,-105.,0.));
#506=CARTESIAN_POINT('',(-5.94142790522056E-14,-4.42354486374086E-13,-0.0299999999997361));
#507=CARTESIAN_POINT('',(-148.5,105.,0.03));
#508=CARTESIAN_POINT('',(-148.5,105.,0.));
#509=CARTESIAN_POINT('',(-148.5,105.,0.));
#510=CARTESIAN_POINT('',(-148.5,-105.,0.));
#511=CARTESIAN_POINT('',(-148.5,-105.,0.03));
#512=CARTESIAN_POINT('',(-148.5,-105.,0.03));
#513=CARTESIAN_POINT('',(-148.5,105.,0.03));
#514=CARTESIAN_POINT('',(-148.5,105.,0.03));
#515=CARTESIAN_POINT('',(-148.5,105.,0.03));
#516=CARTESIAN_POINT('',(-148.5,-105.,0.03));
#517=CARTESIAN_POINT('',(-148.5,-105.,0.));
#518=CARTESIAN_POINT('',(148.5,-105.,0.));
#519=CARTESIAN_POINT('',(148.5,-105.,0.03));
#520=CARTESIAN_POINT('',(148.5,-105.,0.03));
#521=CARTESIAN_POINT('',(-148.5,-105.,0.03));
#522=CARTESIAN_POINT('',(148.5,-105.,0.03));
#523=CARTESIAN_POINT('',(148.5,-105.,0.));
#524=CARTESIAN_POINT('',(148.5,105.,0.));
#525=CARTESIAN_POINT('',(148.5,105.,0.03));
#526=CARTESIAN_POINT('',(148.5,105.,0.03));
#527=CARTESIAN_POINT('',(148.5,-105.,0.03));
#528=CARTESIAN_POINT('',(148.5,105.,0.03));
#529=CARTESIAN_POINT('',(148.5,105.,0.));
#530=CARTESIAN_POINT('',(148.5,105.,0.03));
#531=CARTESIAN_POINT('',(-148.5,-105.,0.03));
#532=CARTESIAN_POINT('',(-148.5,-105.,0.));
#533=CARTESIAN_POINT('',(-4.30211422042248E-13,5.24753851482984E-14,-0.0599999999996958));
#534=MECHANICAL_DESIGN_GEOMETRIC_PRESENTATION_REPRESENTATION('',(#316,#317,
#318),#535);
#535=(
GEOMETRIC_REPRESENTATION_CONTEXT(3)
GLOBAL_UNCERTAINTY_ASSIGNED_CONTEXT((#539))
GLOBAL_UNIT_ASSIGNED_CONTEXT((#545,#544,#543))
REPRESENTATION_CONTEXT('33402','TOP_LEVEL_ASSEMBLY_PART')
);
#536=(
GEOMETRIC_REPRESENTATION_CONTEXT(3)
GLOBAL_UNCERTAINTY_ASSIGNED_CONTEXT((#540))
GLOBAL_UNIT_ASSIGNED_CONTEXT((#545,#544,#543))
REPRESENTATION_CONTEXT('WE-FAS','COMPONENT_PART')
);
#537=(
GEOMETRIC_REPRESENTATION_CONTEXT(3)
GLOBAL_UNCERTAINTY_ASSIGNED_CONTEXT((#541))
GLOBAL_UNIT_ASSIGNED_CONTEXT((#545,#544,#543))
REPRESENTATION_CONTEXT('Adhesive_tape','COMPONENT_PART')
);
#538=(
GEOMETRIC_REPRESENTATION_CONTEXT(3)
GLOBAL_UNCERTAINTY_ASSIGNED_CONTEXT((#542))
GLOBAL_UNIT_ASSIGNED_CONTEXT((#545,#544,#543))
REPRESENTATION_CONTEXT('Release_tape','COMPONENT_PART')
);
#539=UNCERTAINTY_MEASURE_WITH_UNIT(LENGTH_MEASURE(0.005),#545,
'DISTANCE_ACCURACY_VALUE','Maximum Tolerance applied to model');
#540=UNCERTAINTY_MEASURE_WITH_UNIT(LENGTH_MEASURE(0.005),#545,
'DISTANCE_ACCURACY_VALUE','Maximum Tolerance applied to model');
#541=UNCERTAINTY_MEASURE_WITH_UNIT(LENGTH_MEASURE(0.005),#545,
'DISTANCE_ACCURACY_VALUE','Maximum Tolerance applied to model');
#542=UNCERTAINTY_MEASURE_WITH_UNIT(LENGTH_MEASURE(0.005),#545,
'DISTANCE_ACCURACY_VALUE','Maximum Tolerance applied to model');
#543=(
NAMED_UNIT(*)
SI_UNIT($,.STERADIAN.)
SOLID_ANGLE_UNIT()
);
#544=(
NAMED_UNIT(*)
PLANE_ANGLE_UNIT()
SI_UNIT($,.RADIAN.)
);
#545=(
LENGTH_UNIT()
NAMED_UNIT(*)
SI_UNIT(.MILLI.,.METRE.)
);
#546=PRODUCT_DEFINITION_SHAPE('','',#553);
#547=PRODUCT_DEFINITION_SHAPE('','',#554);
#548=PRODUCT_DEFINITION_SHAPE(' ','NAUO PRDDFN',#22);
#549=PRODUCT_DEFINITION_SHAPE('','',#555);
#550=PRODUCT_DEFINITION_SHAPE(' ','NAUO PRDDFN',#23);
#551=PRODUCT_DEFINITION_SHAPE('','',#556);
#552=PRODUCT_DEFINITION_SHAPE(' ','NAUO PRDDFN',#24);
#553=PRODUCT_DEFINITION('','',#561,#557);
#554=PRODUCT_DEFINITION('','',#562,#558);
#555=PRODUCT_DEFINITION('','',#563,#559);
#556=PRODUCT_DEFINITION('','',#564,#560);
#557=PRODUCT_DEFINITION_CONTEXT('',#582,'design');
#558=PRODUCT_DEFINITION_CONTEXT('',#582,'design');
#559=PRODUCT_DEFINITION_CONTEXT('',#582,'design');
#560=PRODUCT_DEFINITION_CONTEXT('',#582,'design');
#561=PRODUCT_DEFINITION_FORMATION_WITH_SPECIFIED_SOURCE('','',#569,
 .NOT_KNOWN.);
#562=PRODUCT_DEFINITION_FORMATION_WITH_SPECIFIED_SOURCE('','',#570,
 .NOT_KNOWN.);
#563=PRODUCT_DEFINITION_FORMATION_WITH_SPECIFIED_SOURCE('','',#571,
 .NOT_KNOWN.);
#564=PRODUCT_DEFINITION_FORMATION_WITH_SPECIFIED_SOURCE('','',#572,
 .NOT_KNOWN.);
#565=PRODUCT_RELATED_PRODUCT_CATEGORY('','',(#569));
#566=PRODUCT_RELATED_PRODUCT_CATEGORY('','',(#570));
#567=PRODUCT_RELATED_PRODUCT_CATEGORY('','',(#571));
#568=PRODUCT_RELATED_PRODUCT_CATEGORY('','',(#572));
#569=PRODUCT('33402','33402','33402',(#577));
#570=PRODUCT('WE-FAS','WE-FAS','WE-FAS',(#578));
#571=PRODUCT('Adhesive_tape','Adhesive_tape','Adhesive_tape',(#579));
#572=PRODUCT('Release_tape','Release_tape','Release_tape',(#580));
#573=PRODUCT_CATEGORY('','');
#574=PRODUCT_CATEGORY('','');
#575=PRODUCT_CATEGORY('','');
#576=PRODUCT_CATEGORY('','');
#577=PRODUCT_CONTEXT('',#582,'mechanical');
#578=PRODUCT_CONTEXT('',#582,'mechanical');
#579=PRODUCT_CONTEXT('',#582,'mechanical');
#580=PRODUCT_CONTEXT('',#582,'mechanical');
#581=APPLICATION_PROTOCOL_DEFINITION('international standard',
'automotive_design',2010,#582);
#582=APPLICATION_CONTEXT(
'core data for automotive mechanical design processes');
ENDSEC;
END-ISO-10303-21;
