ISO-10303-21;
HEADER;
FILE_DESCRIPTION( ( 'Unknown' ), '1' );
FILE_NAME( 'C:/Syc/3D/Product/eisos/AbsEGS/SRH_384xx3xx/384xx309/Rel_Data/384xx309_MaxSize.stp', 'Unknown', ( 'Unknown' ), ( 'Unknown' ), 'PSStep 21.0.46', 'Unknown', '  ' );
FILE_SCHEMA( ( 'AUTOMOTIVE_DESIGN { 1 0 10303 214 1 1 1 1 }' ) );
ENDSEC;
DATA;
#1 = PRODUCT_DEFINITION_CONTEXT( '', #18, 'design' );
#2 = APPLICATION_PROTOCOL_DEFINITION( 'international standard', 'automotive_design', 2001, #18 );
#3 = PRODUCT_CATEGORY_RELATIONSHIP( 'NONE', 'NONE', #19, #20 );
#4 = SHAPE_DEFINITION_REPRESENTATION( #21, #22 );
#5 = PRODUCT_CATEGORY_RELATIONSHIP( 'NONE', 'NONE', #19, #23 );
#6 = CONTEXT_DEPENDENT_SHAPE_REPRESENTATION( #24, #25 );
#7 = SHAPE_DEFINITION_REPRESENTATION( #26, #27 );
#8 = SHAPE_REPRESENTATION_RELATIONSHIP( 'NONE', 'NONE', #27, #28 );
#9 = PRODUCT_CATEGORY_RELATIONSHIP( 'NONE', 'NONE', #19, #29 );
#10 = CONTEXT_DEPENDENT_SHAPE_REPRESENTATION( #30, #31 );
#11 = SHAPE_DEFINITION_REPRESENTATION( #32, #33 );
#12 = SHAPE_REPRESENTATION_RELATIONSHIP( 'NONE', 'NONE', #33, #34 );
#13 = MECHANICAL_DESIGN_GEOMETRIC_PRESENTATION_REPRESENTATION( ' ', ( #35, #36, #37, #38, #39, #40, #41 ), #14 );
#14 =  ( GEOMETRIC_REPRESENTATION_CONTEXT( 3 )GLOBAL_UNCERTAINTY_ASSIGNED_CONTEXT( ( #44 ) )GLOBAL_UNIT_ASSIGNED_CONTEXT( ( #46, #47, #48 ) )REPRESENTATION_CONTEXT( 'NONE', 'WORKSPACE' ) );
#18 = APPLICATION_CONTEXT( 'core data for automotive mechanical design processes' );
#19 = PRODUCT_CATEGORY( 'part', 'NONE' );
#20 = PRODUCT_RELATED_PRODUCT_CATEGORY( 'detail', ' ', ( #50 ) );
#21 = PRODUCT_DEFINITION_SHAPE( 'NONE', 'NONE', #51 );
#22 = SHAPE_REPRESENTATION( 'Assem1', ( #52, #53, #54 ), #55 );
#23 = PRODUCT_RELATED_PRODUCT_CATEGORY( 'detail', ' ', ( #56 ) );
#24 = ( REPRESENTATION_RELATIONSHIP( '', '', #27, #22 )REPRESENTATION_RELATIONSHIP_WITH_TRANSFORMATION( #59 )SHAPE_REPRESENTATION_RELATIONSHIP(  ) );
#25 = PRODUCT_DEFINITION_SHAPE( 'NAUO-PROD-DEF', 'NAUO-PROD-DEF', #61 );
#26 = PRODUCT_DEFINITION_SHAPE( 'NONE', 'NONE', #62 );
#27 = SHAPE_REPRESENTATION( 'MaxSize', ( #52 ), #55 );
#28 = ADVANCED_BREP_SHAPE_REPRESENTATION( 'MaxSize', ( #63 ), #14 );
#29 = PRODUCT_RELATED_PRODUCT_CATEGORY( 'detail', ' ', ( #64 ) );
#30 = ( REPRESENTATION_RELATIONSHIP( '', '', #33, #22 )REPRESENTATION_RELATIONSHIP_WITH_TRANSFORMATION( #67 )SHAPE_REPRESENTATION_RELATIONSHIP(  ) );
#31 = PRODUCT_DEFINITION_SHAPE( 'NAUO-PROD-DEF', 'NAUO-PROD-DEF', #69 );
#32 = PRODUCT_DEFINITION_SHAPE( 'NONE', 'NONE', #70 );
#33 = SHAPE_REPRESENTATION( '384xx309', ( #52 ), #55 );
#34 = ADVANCED_BREP_SHAPE_REPRESENTATION( '384xx309', ( #71 ), #14 );
#35 = STYLED_ITEM( '', ( #72 ), #73 );
#36 = STYLED_ITEM( '', ( #74 ), #75 );
#37 = STYLED_ITEM( '', ( #76 ), #77 );
#38 = STYLED_ITEM( '', ( #78 ), #79 );
#39 = STYLED_ITEM( '', ( #80 ), #81 );
#40 = STYLED_ITEM( '', ( #82 ), #83 );
#41 = STYLED_ITEM( '', ( #84 ), #85 );
#44 = UNCERTAINTY_MEASURE_WITH_UNIT( LENGTH_MEASURE( 0.00100000000000000 ), #46, '', '' );
#46 =  ( CONVERSION_BASED_UNIT( 'MILLIMETRE', #88 )LENGTH_UNIT(  )NAMED_UNIT( #91 ) );
#47 =  ( NAMED_UNIT( #93 )PLANE_ANGLE_UNIT(  )SI_UNIT( $, .RADIAN. ) );
#48 =  ( NAMED_UNIT( #93 )SI_UNIT( $, .STERADIAN. )SOLID_ANGLE_UNIT(  ) );
#50 = PRODUCT( 'Assem1', 'Assem1', 'PART-Assem1-DESC', ( #99 ) );
#51 = PRODUCT_DEFINITION( 'NONE', 'NONE', #100, #1 );
#52 = AXIS2_PLACEMENT_3D( '', #101, #102, #103 );
#53 = AXIS2_PLACEMENT_3D( '', #104, #105, #106 );
#54 = AXIS2_PLACEMENT_3D( '', #107, #108, #109 );
#55 =  ( GEOMETRIC_REPRESENTATION_CONTEXT( 3 )GLOBAL_UNCERTAINTY_ASSIGNED_CONTEXT( ( #112 ) )GLOBAL_UNIT_ASSIGNED_CONTEXT( ( #114, #115, #116 ) )REPRESENTATION_CONTEXT( 'NONE', 'WORKSPACE' ) );
#56 = PRODUCT( 'MaxSize', 'MaxSize', 'PART-MaxSize-DESC', ( #99 ) );
#59 = ITEM_DEFINED_TRANSFORMATION( '', '', #52, #53 );
#61 = NEXT_ASSEMBLY_USAGE_OCCURRENCE( 'NAUO1', 'MaxSize', 'MaxSize', #51, #62, $ );
#62 = PRODUCT_DEFINITION( 'MaxSize', 'MaxSize', #118, #1 );
#63 = MANIFOLD_SOLID_BREP( 'MaxSize', #119 );
#64 = PRODUCT( '384xx309', '384xx309', 'PART-384xx309-DESC', ( #99 ) );
#67 = ITEM_DEFINED_TRANSFORMATION( '', '', #52, #54 );
#69 = NEXT_ASSEMBLY_USAGE_OCCURRENCE( 'NAUO2', '384xx309', '384xx309', #51, #70, $ );
#70 = PRODUCT_DEFINITION( '384xx309', '384xx309', #120, #1 );
#71 = MANIFOLD_SOLID_BREP( '384xx309', #121 );
#72 = PRESENTATION_STYLE_ASSIGNMENT( ( #122 ) );
#73 = ADVANCED_FACE( '', ( #123 ), #124, .T. );
#74 = PRESENTATION_STYLE_ASSIGNMENT( ( #125 ) );
#75 = ADVANCED_FACE( '', ( #126 ), #127, .F. );
#76 = PRESENTATION_STYLE_ASSIGNMENT( ( #128 ) );
#77 = ADVANCED_FACE( '', ( #129, #130 ), #131, .T. );
#78 = PRESENTATION_STYLE_ASSIGNMENT( ( #132 ) );
#79 = ADVANCED_FACE( '', ( #133, #134 ), #135, .F. );
#80 = PRESENTATION_STYLE_ASSIGNMENT( ( #136 ) );
#81 = ADVANCED_FACE( '', ( #137, #138 ), #139, .T. );
#82 = PRESENTATION_STYLE_ASSIGNMENT( ( #140 ) );
#83 = ADVANCED_FACE( '', ( #141, #142 ), #143, .T. );
#84 = PRESENTATION_STYLE_ASSIGNMENT( ( #144 ) );
#85 = ADVANCED_FACE( '', ( #145, #146 ), #147, .F. );
#88 = LENGTH_MEASURE_WITH_UNIT( LENGTH_MEASURE( 1.00000000000000 ), #148 );
#91 = DIMENSIONAL_EXPONENTS( 1.00000000000000, 0.000000000000000, 0.000000000000000, 0.000000000000000, 0.000000000000000, 0.000000000000000, 0.000000000000000 );
#93 = DIMENSIONAL_EXPONENTS( 0.000000000000000, 0.000000000000000, 0.000000000000000, 0.000000000000000, 0.000000000000000, 0.000000000000000, 0.000000000000000 );
#99 = PRODUCT_CONTEXT( '', #18, 'mechanical' );
#100 = PRODUCT_DEFINITION_FORMATION_WITH_SPECIFIED_SOURCE( ' ', 'NONE', #50, .NOT_KNOWN. );
#101 = CARTESIAN_POINT( '', ( 0.000000000000000, 0.000000000000000, 0.000000000000000 ) );
#102 = DIRECTION( '', ( 0.000000000000000, 0.000000000000000, 1.00000000000000 ) );
#103 = DIRECTION( '', ( 1.00000000000000, 0.000000000000000, 0.000000000000000 ) );
#104 = CARTESIAN_POINT( '', ( 0.000000000000000, 0.000000000000000, 0.000000000000000 ) );
#105 = DIRECTION( '', ( 0.000000000000000, 0.000000000000000, 1.00000000000000 ) );
#106 = DIRECTION( '', ( 1.00000000000000, 0.000000000000000, 0.000000000000000 ) );
#107 = CARTESIAN_POINT( '', ( -3.02309930648452E-16, 0.000000000000000, -0.100000000000000 ) );
#108 = DIRECTION( '', ( 0.000000000000000, 0.000000000000000, 1.00000000000000 ) );
#109 = DIRECTION( '', ( 1.00000000000000, 0.000000000000000, 0.000000000000000 ) );
#112 = UNCERTAINTY_MEASURE_WITH_UNIT( LENGTH_MEASURE( 0.00100000000000000 ), #114, '', '' );
#114 =  ( CONVERSION_BASED_UNIT( 'MILLIMETRE', #151 )LENGTH_UNIT(  )NAMED_UNIT( #154 ) );
#115 =  ( NAMED_UNIT( #156 )PLANE_ANGLE_UNIT(  )SI_UNIT( $, .RADIAN. ) );
#116 =  ( NAMED_UNIT( #156 )SI_UNIT( $, .STERADIAN. )SOLID_ANGLE_UNIT(  ) );
#118 = PRODUCT_DEFINITION_FORMATION_WITH_SPECIFIED_SOURCE( ' ', 'NONE', #56, .NOT_KNOWN. );
#119 = CLOSED_SHELL( '', ( #75, #73, #77 ) );
#120 = PRODUCT_DEFINITION_FORMATION_WITH_SPECIFIED_SOURCE( ' ', 'NONE', #64, .NOT_KNOWN. );
#121 = CLOSED_SHELL( '', ( #79, #81, #85, #83 ) );
#122 = SURFACE_STYLE_USAGE( .BOTH., #162 );
#123 = FACE_OUTER_BOUND( '', #163, .T. );
#124 = PLANE( '', #164 );
#125 = SURFACE_STYLE_USAGE( .BOTH., #165 );
#126 = FACE_OUTER_BOUND( '', #166, .T. );
#127 = PLANE( '', #167 );
#128 = SURFACE_STYLE_USAGE( .BOTH., #168 );
#129 = FACE_OUTER_BOUND( '', #169, .T. );
#130 = FACE_OUTER_BOUND( '', #170, .T. );
#131 = CYLINDRICAL_SURFACE( '', #171, 4.60000000000000 );
#132 = SURFACE_STYLE_USAGE( .BOTH., #172 );
#133 = FACE_OUTER_BOUND( '', #173, .T. );
#134 = FACE_OUTER_BOUND( '', #174, .T. );
#135 = CYLINDRICAL_SURFACE( '', #175, 2.50000000000000 );
#136 = SURFACE_STYLE_USAGE( .BOTH., #176 );
#137 = FACE_OUTER_BOUND( '', #177, .T. );
#138 = FACE_OUTER_BOUND( '', #178, .T. );
#139 = CYLINDRICAL_SURFACE( '', #179, 4.50000000000000 );
#140 = SURFACE_STYLE_USAGE( .BOTH., #180 );
#141 = FACE_BOUND( '', #181, .T. );
#142 = FACE_OUTER_BOUND( '', #182, .T. );
#143 = PLANE( '', #183 );
#144 = SURFACE_STYLE_USAGE( .BOTH., #184 );
#145 = FACE_BOUND( '', #185, .T. );
#146 = FACE_OUTER_BOUND( '', #186, .T. );
#147 = PLANE( '', #187 );
#148 =  ( LENGTH_UNIT(  )NAMED_UNIT( #91 )SI_UNIT( .MILLI., .METRE. ) );
#151 = LENGTH_MEASURE_WITH_UNIT( LENGTH_MEASURE( 1.00000000000000 ), #189 );
#154 = DIMENSIONAL_EXPONENTS( 1.00000000000000, 0.000000000000000, 0.000000000000000, 0.000000000000000, 0.000000000000000, 0.000000000000000, 0.000000000000000 );
#156 = DIMENSIONAL_EXPONENTS( 0.000000000000000, 0.000000000000000, 0.000000000000000, 0.000000000000000, 0.000000000000000, 0.000000000000000, 0.000000000000000 );
#162 = SURFACE_SIDE_STYLE( '', ( #190 ) );
#163 = EDGE_LOOP( '', ( #191 ) );
#164 = AXIS2_PLACEMENT_3D( '', #192, #193, #194 );
#165 = SURFACE_SIDE_STYLE( '', ( #195 ) );
#166 = EDGE_LOOP( '', ( #196 ) );
#167 = AXIS2_PLACEMENT_3D( '', #197, #198, #199 );
#168 = SURFACE_SIDE_STYLE( '', ( #200 ) );
#169 = EDGE_LOOP( '', ( #201 ) );
#170 = EDGE_LOOP( '', ( #202 ) );
#171 = AXIS2_PLACEMENT_3D( '', #203, #204, #205 );
#172 = SURFACE_SIDE_STYLE( '', ( #206 ) );
#173 = EDGE_LOOP( '', ( #207 ) );
#174 = EDGE_LOOP( '', ( #208 ) );
#175 = AXIS2_PLACEMENT_3D( '', #209, #210, #211 );
#176 = SURFACE_SIDE_STYLE( '', ( #212 ) );
#177 = EDGE_LOOP( '', ( #213 ) );
#178 = EDGE_LOOP( '', ( #214 ) );
#179 = AXIS2_PLACEMENT_3D( '', #215, #216, #217 );
#180 = SURFACE_SIDE_STYLE( '', ( #218 ) );
#181 = EDGE_LOOP( '', ( #219 ) );
#182 = EDGE_LOOP( '', ( #220 ) );
#183 = AXIS2_PLACEMENT_3D( '', #221, #222, #223 );
#184 = SURFACE_SIDE_STYLE( '', ( #224 ) );
#185 = EDGE_LOOP( '', ( #225 ) );
#186 = EDGE_LOOP( '', ( #226 ) );
#187 = AXIS2_PLACEMENT_3D( '', #227, #228, #229 );
#189 =  ( LENGTH_UNIT(  )NAMED_UNIT( #154 )SI_UNIT( .MILLI., .METRE. ) );
#190 = SURFACE_STYLE_FILL_AREA( #231 );
#191 = ORIENTED_EDGE( '', *, *, #232, .T. );
#192 = CARTESIAN_POINT( '', ( 0.000000000000000, -500.100000000000, 0.000000000000000 ) );
#193 = DIRECTION( '', ( 0.000000000000000, -1.00000000000000, 0.000000000000000 ) );
#194 = DIRECTION( '', ( 0.000000000000000, 0.000000000000000, -1.00000000000000 ) );
#195 = SURFACE_STYLE_FILL_AREA( #233 );
#196 = ORIENTED_EDGE( '', *, *, #234, .F. );
#197 = CARTESIAN_POINT( '', ( 0.000000000000000, 500.100000000000, 0.000000000000000 ) );
#198 = DIRECTION( '', ( 0.000000000000000, -1.00000000000000, 0.000000000000000 ) );
#199 = DIRECTION( '', ( 0.000000000000000, 0.000000000000000, -1.00000000000000 ) );
#200 = SURFACE_STYLE_FILL_AREA( #235 );
#201 = ORIENTED_EDGE( '', *, *, #232, .F. );
#202 = ORIENTED_EDGE( '', *, *, #234, .T. );
#203 = CARTESIAN_POINT( '', ( 0.000000000000000, -500.100000000000, 0.000000000000000 ) );
#204 = DIRECTION( '', ( -0.000000000000000, -1.00000000000000, -0.000000000000000 ) );
#205 = DIRECTION( '', ( 0.000000000000000, 0.000000000000000, 1.00000000000000 ) );
#206 = SURFACE_STYLE_FILL_AREA( #236 );
#207 = ORIENTED_EDGE( '', *, *, #237, .T. );
#208 = ORIENTED_EDGE( '', *, *, #238, .F. );
#209 = CARTESIAN_POINT( '', ( 0.000000000000000, -500.000000000000, 0.000000000000000 ) );
#210 = DIRECTION( '', ( -0.000000000000000, -1.00000000000000, -0.000000000000000 ) );
#211 = DIRECTION( '', ( 0.000000000000000, 0.000000000000000, 1.00000000000000 ) );
#212 = SURFACE_STYLE_FILL_AREA( #239 );
#213 = ORIENTED_EDGE( '', *, *, #240, .F. );
#214 = ORIENTED_EDGE( '', *, *, #241, .T. );
#215 = CARTESIAN_POINT( '', ( 0.000000000000000, -500.000000000000, 0.000000000000000 ) );
#216 = DIRECTION( '', ( -0.000000000000000, -1.00000000000000, -0.000000000000000 ) );
#217 = DIRECTION( '', ( 0.000000000000000, 0.000000000000000, 1.00000000000000 ) );
#218 = SURFACE_STYLE_FILL_AREA( #242 );
#219 = ORIENTED_EDGE( '', *, *, #237, .F. );
#220 = ORIENTED_EDGE( '', *, *, #240, .T. );
#221 = CARTESIAN_POINT( '', ( 0.000000000000000, -500.000000000000, 0.000000000000000 ) );
#222 = DIRECTION( '', ( 0.000000000000000, -1.00000000000000, 0.000000000000000 ) );
#223 = DIRECTION( '', ( 0.000000000000000, 0.000000000000000, -1.00000000000000 ) );
#224 = SURFACE_STYLE_FILL_AREA( #243 );
#225 = ORIENTED_EDGE( '', *, *, #238, .T. );
#226 = ORIENTED_EDGE( '', *, *, #241, .F. );
#227 = CARTESIAN_POINT( '', ( 0.000000000000000, 500.000000000000, 0.000000000000000 ) );
#228 = DIRECTION( '', ( 0.000000000000000, -1.00000000000000, 0.000000000000000 ) );
#229 = DIRECTION( '', ( 0.000000000000000, 0.000000000000000, -1.00000000000000 ) );
#231 = FILL_AREA_STYLE( '', ( #244 ) );
#232 = EDGE_CURVE( '', #245, #245, #246, .T. );
#233 = FILL_AREA_STYLE( '', ( #247 ) );
#234 = EDGE_CURVE( '', #248, #248, #249, .T. );
#235 = FILL_AREA_STYLE( '', ( #250 ) );
#236 = FILL_AREA_STYLE( '', ( #251 ) );
#237 = EDGE_CURVE( '', #252, #252, #253, .T. );
#238 = EDGE_CURVE( '', #254, #254, #255, .T. );
#239 = FILL_AREA_STYLE( '', ( #256 ) );
#240 = EDGE_CURVE( '', #257, #257, #258, .T. );
#241 = EDGE_CURVE( '', #259, #259, #260, .T. );
#242 = FILL_AREA_STYLE( '', ( #261 ) );
#243 = FILL_AREA_STYLE( '', ( #262 ) );
#244 = FILL_AREA_STYLE_COLOUR( '', #263 );
#245 = VERTEX_POINT( '', #264 );
#246 = CIRCLE( '', #265, 4.60000000000000 );
#247 = FILL_AREA_STYLE_COLOUR( '', #266 );
#248 = VERTEX_POINT( '', #267 );
#249 = CIRCLE( '', #268, 4.60000000000000 );
#250 = FILL_AREA_STYLE_COLOUR( '', #269 );
#251 = FILL_AREA_STYLE_COLOUR( '', #270 );
#252 = VERTEX_POINT( '', #271 );
#253 = CIRCLE( '', #272, 2.50000000000000 );
#254 = VERTEX_POINT( '', #273 );
#255 = CIRCLE( '', #274, 2.50000000000000 );
#256 = FILL_AREA_STYLE_COLOUR( '', #275 );
#257 = VERTEX_POINT( '', #276 );
#258 = CIRCLE( '', #277, 4.50000000000000 );
#259 = VERTEX_POINT( '', #278 );
#260 = CIRCLE( '', #279, 4.50000000000000 );
#261 = FILL_AREA_STYLE_COLOUR( '', #280 );
#262 = FILL_AREA_STYLE_COLOUR( '', #281 );
#263 = COLOUR_RGB( '', 1.00000000000000, 1.00000000000000, 1.00000000000000 );
#264 = CARTESIAN_POINT( '', ( 4.60000000000000, -500.100000000000, 0.000000000000000 ) );
#265 = AXIS2_PLACEMENT_3D( '', #282, #283, #284 );
#266 = COLOUR_RGB( '', 1.00000000000000, 1.00000000000000, 1.00000000000000 );
#267 = CARTESIAN_POINT( '', ( 4.60000000000000, 500.100000000000, 0.000000000000000 ) );
#268 = AXIS2_PLACEMENT_3D( '', #285, #286, #287 );
#269 = COLOUR_RGB( '', 1.00000000000000, 1.00000000000000, 1.00000000000000 );
#270 = COLOUR_RGB( '', 0.750000000000000, 0.695399999600000, 0.555000007200000 );
#271 = CARTESIAN_POINT( '', ( 2.50000000000000, -500.000000000000, 0.000000000000000 ) );
#272 = AXIS2_PLACEMENT_3D( '', #288, #289, #290 );
#273 = CARTESIAN_POINT( '', ( 2.50000000000000, 500.000000000000, 0.000000000000000 ) );
#274 = AXIS2_PLACEMENT_3D( '', #291, #292, #293 );
#275 = COLOUR_RGB( '', 0.750000000000000, 0.695399999600000, 0.555000007200000 );
#276 = CARTESIAN_POINT( '', ( 4.50000000000000, -500.000000000000, 0.000000000000000 ) );
#277 = AXIS2_PLACEMENT_3D( '', #294, #295, #296 );
#278 = CARTESIAN_POINT( '', ( 4.50000000000000, 500.000000000000, 0.000000000000000 ) );
#279 = AXIS2_PLACEMENT_3D( '', #297, #298, #299 );
#280 = COLOUR_RGB( '', 0.750000000000000, 0.695399999600000, 0.555000007200000 );
#281 = COLOUR_RGB( '', 0.750000000000000, 0.695399999600000, 0.555000007200000 );
#282 = CARTESIAN_POINT( '', ( 0.000000000000000, -500.100000000000, 0.000000000000000 ) );
#283 = DIRECTION( '', ( 0.000000000000000, -1.00000000000000, 0.000000000000000 ) );
#284 = DIRECTION( '', ( 1.00000000000000, 0.000000000000000, 0.000000000000000 ) );
#285 = CARTESIAN_POINT( '', ( 0.000000000000000, 500.100000000000, 0.000000000000000 ) );
#286 = DIRECTION( '', ( 0.000000000000000, -1.00000000000000, 0.000000000000000 ) );
#287 = DIRECTION( '', ( 1.00000000000000, 0.000000000000000, 0.000000000000000 ) );
#288 = CARTESIAN_POINT( '', ( 0.000000000000000, -500.000000000000, 0.000000000000000 ) );
#289 = DIRECTION( '', ( 0.000000000000000, -1.00000000000000, 0.000000000000000 ) );
#290 = DIRECTION( '', ( 1.00000000000000, 0.000000000000000, 0.000000000000000 ) );
#291 = CARTESIAN_POINT( '', ( 0.000000000000000, 500.000000000000, 0.000000000000000 ) );
#292 = DIRECTION( '', ( 0.000000000000000, -1.00000000000000, 0.000000000000000 ) );
#293 = DIRECTION( '', ( 1.00000000000000, 0.000000000000000, 0.000000000000000 ) );
#294 = CARTESIAN_POINT( '', ( 0.000000000000000, -500.000000000000, 0.000000000000000 ) );
#295 = DIRECTION( '', ( 0.000000000000000, -1.00000000000000, 0.000000000000000 ) );
#296 = DIRECTION( '', ( 1.00000000000000, 0.000000000000000, 0.000000000000000 ) );
#297 = CARTESIAN_POINT( '', ( 0.000000000000000, 500.000000000000, 0.000000000000000 ) );
#298 = DIRECTION( '', ( 0.000000000000000, -1.00000000000000, 0.000000000000000 ) );
#299 = DIRECTION( '', ( 1.00000000000000, 0.000000000000000, 0.000000000000000 ) );
ENDSEC;
END-ISO-10303-21;
