ISO-10303-21;
HEADER;
FILE_DESCRIPTION( ( 'Unknown' ), '1' );
FILE_NAME( 'C:/Syc/3D/Product/eisos/AbsEGS/SRE_384xx2xx/384xx208/Rel_Data/384xx208_MaxSize.stp', 'Unknown', ( 'Unknown' ), ( 'Unknown' ), 'PSStep 21.0.46', 'Unknown', '  ' );
FILE_SCHEMA( ( 'AUTOMOTIVE_DESIGN { 1 0 10303 214 1 1 1 1 }' ) );
ENDSEC;
DATA;
#1 = PRODUCT_DEFINITION_CONTEXT( '', #18, 'design' );
#2 = APPLICATION_PROTOCOL_DEFINITION( 'international standard', 'automotive_design', 2001, #18 );
#3 = PRODUCT_CATEGORY_RELATIONSHIP( 'NONE', 'NONE', #19, #20 );
#4 = SHAPE_DEFINITION_REPRESENTATION( #21, #22 );
#5 = PRODUCT_CATEGORY_RELATIONSHIP( 'NONE', 'NONE', #19, #23 );
#6 = CONTEXT_DEPENDENT_SHAPE_REPRESENTATION( #24, #25 );
#7 = SHAPE_DEFINITION_REPRESENTATION( #26, #27 );
#8 = SHAPE_REPRESENTATION_RELATIONSHIP( 'NONE', 'NONE', #27, #28 );
#9 = PRODUCT_CATEGORY_RELATIONSHIP( 'NONE', 'NONE', #19, #29 );
#10 = CONTEXT_DEPENDENT_SHAPE_REPRESENTATION( #30, #31 );
#11 = SHAPE_DEFINITION_REPRESENTATION( #32, #33 );
#12 = SHAPE_REPRESENTATION_RELATIONSHIP( 'NONE', 'NONE', #33, #34 );
#13 = MECHANICAL_DESIGN_GEOMETRIC_PRESENTATION_REPRESENTATION( ' ', ( #35, #36, #37, #38, #39, #40, #41, #42, #43, #44, #45, #46 ), #14 );
#14 =  ( GEOMETRIC_REPRESENTATION_CONTEXT( 3 )GLOBAL_UNCERTAINTY_ASSIGNED_CONTEXT( ( #49 ) )GLOBAL_UNIT_ASSIGNED_CONTEXT( ( #51, #52, #53 ) )REPRESENTATION_CONTEXT( 'NONE', 'WORKSPACE' ) );
#18 = APPLICATION_CONTEXT( 'core data for automotive mechanical design processes' );
#19 = PRODUCT_CATEGORY( 'part', 'NONE' );
#20 = PRODUCT_RELATED_PRODUCT_CATEGORY( 'detail', ' ', ( #55 ) );
#21 = PRODUCT_DEFINITION_SHAPE( 'NONE', 'NONE', #56 );
#22 = SHAPE_REPRESENTATION( 'Assem1', ( #57, #58, #59 ), #60 );
#23 = PRODUCT_RELATED_PRODUCT_CATEGORY( 'detail', ' ', ( #61 ) );
#24 = ( REPRESENTATION_RELATIONSHIP( '', '', #27, #22 )REPRESENTATION_RELATIONSHIP_WITH_TRANSFORMATION( #64 )SHAPE_REPRESENTATION_RELATIONSHIP(  ) );
#25 = PRODUCT_DEFINITION_SHAPE( 'NAUO-PROD-DEF', 'NAUO-PROD-DEF', #66 );
#26 = PRODUCT_DEFINITION_SHAPE( 'NONE', 'NONE', #67 );
#27 = SHAPE_REPRESENTATION( 'MaxSized Square', ( #57 ), #60 );
#28 = ADVANCED_BREP_SHAPE_REPRESENTATION( 'MaxSized Square', ( #68 ), #14 );
#29 = PRODUCT_RELATED_PRODUCT_CATEGORY( 'detail', ' ', ( #69 ) );
#30 = ( REPRESENTATION_RELATIONSHIP( '', '', #33, #22 )REPRESENTATION_RELATIONSHIP_WITH_TRANSFORMATION( #72 )SHAPE_REPRESENTATION_RELATIONSHIP(  ) );
#31 = PRODUCT_DEFINITION_SHAPE( 'NAUO-PROD-DEF', 'NAUO-PROD-DEF', #74 );
#32 = PRODUCT_DEFINITION_SHAPE( 'NONE', 'NONE', #75 );
#33 = SHAPE_REPRESENTATION( '384xx208', ( #57 ), #60 );
#34 = ADVANCED_BREP_SHAPE_REPRESENTATION( '384xx208', ( #76 ), #14 );
#35 = STYLED_ITEM( '', ( #77 ), #78 );
#36 = STYLED_ITEM( '', ( #79 ), #80 );
#37 = STYLED_ITEM( '', ( #81 ), #82 );
#38 = STYLED_ITEM( '', ( #83 ), #84 );
#39 = STYLED_ITEM( '', ( #85 ), #86 );
#40 = STYLED_ITEM( '', ( #87 ), #88 );
#41 = STYLED_ITEM( '', ( #89 ), #90 );
#42 = STYLED_ITEM( '', ( #91 ), #92 );
#43 = STYLED_ITEM( '', ( #93 ), #94 );
#44 = STYLED_ITEM( '', ( #95 ), #96 );
#45 = STYLED_ITEM( '', ( #97 ), #98 );
#46 = STYLED_ITEM( '', ( #99 ), #100 );
#49 = UNCERTAINTY_MEASURE_WITH_UNIT( LENGTH_MEASURE( 0.00100000000000000 ), #51, '', '' );
#51 =  ( CONVERSION_BASED_UNIT( 'MILLIMETRE', #103 )LENGTH_UNIT(  )NAMED_UNIT( #106 ) );
#52 =  ( NAMED_UNIT( #108 )PLANE_ANGLE_UNIT(  )SI_UNIT( $, .RADIAN. ) );
#53 =  ( NAMED_UNIT( #108 )SI_UNIT( $, .STERADIAN. )SOLID_ANGLE_UNIT(  ) );
#55 = PRODUCT( 'Assem1', 'Assem1', 'PART-Assem1-DESC', ( #114 ) );
#56 = PRODUCT_DEFINITION( 'NONE', 'NONE', #115, #1 );
#57 = AXIS2_PLACEMENT_3D( '', #116, #117, #118 );
#58 = AXIS2_PLACEMENT_3D( '', #119, #120, #121 );
#59 = AXIS2_PLACEMENT_3D( '', #122, #123, #124 );
#60 =  ( GEOMETRIC_REPRESENTATION_CONTEXT( 3 )GLOBAL_UNCERTAINTY_ASSIGNED_CONTEXT( ( #127 ) )GLOBAL_UNIT_ASSIGNED_CONTEXT( ( #129, #130, #131 ) )REPRESENTATION_CONTEXT( 'NONE', 'WORKSPACE' ) );
#61 = PRODUCT( 'MaxSized Square', 'MaxSized Square', 'PART-MaxSized Square-DESC', ( #114 ) );
#64 = ITEM_DEFINED_TRANSFORMATION( '', '', #57, #58 );
#66 = NEXT_ASSEMBLY_USAGE_OCCURRENCE( 'NAUO1', 'MaxSized Square', 'MaxSized Square', #56, #67, $ );
#67 = PRODUCT_DEFINITION( 'MaxSized Square', 'MaxSized Square', #133, #1 );
#68 = MANIFOLD_SOLID_BREP( 'MaxSized Square', #134 );
#69 = PRODUCT( '384xx208', '384xx208', 'PART-384xx208-DESC', ( #114 ) );
#72 = ITEM_DEFINED_TRANSFORMATION( '', '', #57, #59 );
#74 = NEXT_ASSEMBLY_USAGE_OCCURRENCE( 'NAUO2', '384xx208', '384xx208', #56, #75, $ );
#75 = PRODUCT_DEFINITION( '384xx208', '384xx208', #135, #1 );
#76 = MANIFOLD_SOLID_BREP( '384xx208', #136 );
#77 = PRESENTATION_STYLE_ASSIGNMENT( ( #137 ) );
#78 = ADVANCED_FACE( '', ( #138 ), #139, .T. );
#79 = PRESENTATION_STYLE_ASSIGNMENT( ( #140 ) );
#80 = ADVANCED_FACE( '', ( #141 ), #142, .T. );
#81 = PRESENTATION_STYLE_ASSIGNMENT( ( #143 ) );
#82 = ADVANCED_FACE( '', ( #144 ), #145, .F. );
#83 = PRESENTATION_STYLE_ASSIGNMENT( ( #146 ) );
#84 = ADVANCED_FACE( '', ( #147 ), #148, .T. );
#85 = PRESENTATION_STYLE_ASSIGNMENT( ( #149 ) );
#86 = ADVANCED_FACE( '', ( #150 ), #151, .T. );
#87 = PRESENTATION_STYLE_ASSIGNMENT( ( #152 ) );
#88 = ADVANCED_FACE( '', ( #153 ), #154, .T. );
#89 = PRESENTATION_STYLE_ASSIGNMENT( ( #155 ) );
#90 = ADVANCED_FACE( '', ( #156 ), #157, .T. );
#91 = PRESENTATION_STYLE_ASSIGNMENT( ( #158 ) );
#92 = ADVANCED_FACE( '', ( #159 ), #160, .T. );
#93 = PRESENTATION_STYLE_ASSIGNMENT( ( #161 ) );
#94 = ADVANCED_FACE( '', ( #162 ), #163, .F. );
#95 = PRESENTATION_STYLE_ASSIGNMENT( ( #164 ) );
#96 = ADVANCED_FACE( '', ( #165 ), #166, .T. );
#97 = PRESENTATION_STYLE_ASSIGNMENT( ( #167 ) );
#98 = ADVANCED_FACE( '', ( #168 ), #169, .T. );
#99 = PRESENTATION_STYLE_ASSIGNMENT( ( #170 ) );
#100 = ADVANCED_FACE( '', ( #171 ), #172, .T. );
#103 = LENGTH_MEASURE_WITH_UNIT( LENGTH_MEASURE( 1.00000000000000 ), #173 );
#106 = DIMENSIONAL_EXPONENTS( 1.00000000000000, 0.000000000000000, 0.000000000000000, 0.000000000000000, 0.000000000000000, 0.000000000000000, 0.000000000000000 );
#108 = DIMENSIONAL_EXPONENTS( 0.000000000000000, 0.000000000000000, 0.000000000000000, 0.000000000000000, 0.000000000000000, 0.000000000000000, 0.000000000000000 );
#114 = PRODUCT_CONTEXT( '', #18, 'mechanical' );
#115 = PRODUCT_DEFINITION_FORMATION_WITH_SPECIFIED_SOURCE( ' ', 'NONE', #55, .NOT_KNOWN. );
#116 = CARTESIAN_POINT( '', ( 0.000000000000000, 0.000000000000000, 0.000000000000000 ) );
#117 = DIRECTION( '', ( 0.000000000000000, 0.000000000000000, 1.00000000000000 ) );
#118 = DIRECTION( '', ( 1.00000000000000, 0.000000000000000, 0.000000000000000 ) );
#119 = CARTESIAN_POINT( '', ( 0.000000000000000, 0.000000000000000, 0.000000000000000 ) );
#120 = DIRECTION( '', ( 0.000000000000000, 0.000000000000000, 1.00000000000000 ) );
#121 = DIRECTION( '', ( 1.00000000000000, 0.000000000000000, 0.000000000000000 ) );
#122 = CARTESIAN_POINT( '', ( 3.79470760369927E-15, 0.000000000000000, -0.0749999999999969 ) );
#123 = DIRECTION( '', ( 0.000000000000000, 0.000000000000000, 1.00000000000000 ) );
#124 = DIRECTION( '', ( 1.00000000000000, 0.000000000000000, 0.000000000000000 ) );
#127 = UNCERTAINTY_MEASURE_WITH_UNIT( LENGTH_MEASURE( 0.00100000000000000 ), #129, '', '' );
#129 =  ( CONVERSION_BASED_UNIT( 'MILLIMETRE', #176 )LENGTH_UNIT(  )NAMED_UNIT( #179 ) );
#130 =  ( NAMED_UNIT( #181 )PLANE_ANGLE_UNIT(  )SI_UNIT( $, .RADIAN. ) );
#131 =  ( NAMED_UNIT( #181 )SI_UNIT( $, .STERADIAN. )SOLID_ANGLE_UNIT(  ) );
#133 = PRODUCT_DEFINITION_FORMATION_WITH_SPECIFIED_SOURCE( ' ', 'NONE', #61, .NOT_KNOWN. );
#134 = CLOSED_SHELL( '', ( #100, #88, #96, #98, #78, #82 ) );
#135 = PRODUCT_DEFINITION_FORMATION_WITH_SPECIFIED_SOURCE( ' ', 'NONE', #69, .NOT_KNOWN. );
#136 = CLOSED_SHELL( '', ( #86, #84, #80, #92, #90, #94 ) );
#137 = SURFACE_STYLE_USAGE( .BOTH., #187 );
#138 = FACE_OUTER_BOUND( '', #188, .T. );
#139 = PLANE( '', #189 );
#140 = SURFACE_STYLE_USAGE( .BOTH., #190 );
#141 = FACE_OUTER_BOUND( '', #191, .T. );
#142 = PLANE( '', #192 );
#143 = SURFACE_STYLE_USAGE( .BOTH., #193 );
#144 = FACE_OUTER_BOUND( '', #194, .T. );
#145 = PLANE( '', #195 );
#146 = SURFACE_STYLE_USAGE( .BOTH., #196 );
#147 = FACE_OUTER_BOUND( '', #197, .T. );
#148 = PLANE( '', #198 );
#149 = SURFACE_STYLE_USAGE( .BOTH., #199 );
#150 = FACE_OUTER_BOUND( '', #200, .T. );
#151 = PLANE( '', #201 );
#152 = SURFACE_STYLE_USAGE( .BOTH., #202 );
#153 = FACE_OUTER_BOUND( '', #203, .T. );
#154 = PLANE( '', #204 );
#155 = SURFACE_STYLE_USAGE( .BOTH., #205 );
#156 = FACE_OUTER_BOUND( '', #206, .T. );
#157 = PLANE( '', #207 );
#158 = SURFACE_STYLE_USAGE( .BOTH., #208 );
#159 = FACE_OUTER_BOUND( '', #209, .T. );
#160 = PLANE( '', #210 );
#161 = SURFACE_STYLE_USAGE( .BOTH., #211 );
#162 = FACE_OUTER_BOUND( '', #212, .T. );
#163 = PLANE( '', #213 );
#164 = SURFACE_STYLE_USAGE( .BOTH., #214 );
#165 = FACE_OUTER_BOUND( '', #215, .T. );
#166 = PLANE( '', #216 );
#167 = SURFACE_STYLE_USAGE( .BOTH., #217 );
#168 = FACE_OUTER_BOUND( '', #218, .T. );
#169 = PLANE( '', #219 );
#170 = SURFACE_STYLE_USAGE( .BOTH., #220 );
#171 = FACE_OUTER_BOUND( '', #221, .T. );
#172 = PLANE( '', #222 );
#173 =  ( LENGTH_UNIT(  )NAMED_UNIT( #106 )SI_UNIT( .MILLI., .METRE. ) );
#176 = LENGTH_MEASURE_WITH_UNIT( LENGTH_MEASURE( 1.00000000000000 ), #224 );
#179 = DIMENSIONAL_EXPONENTS( 1.00000000000000, 0.000000000000000, 0.000000000000000, 0.000000000000000, 0.000000000000000, 0.000000000000000, 0.000000000000000 );
#181 = DIMENSIONAL_EXPONENTS( 0.000000000000000, 0.000000000000000, 0.000000000000000, 0.000000000000000, 0.000000000000000, 0.000000000000000, 0.000000000000000 );
#187 = SURFACE_SIDE_STYLE( '', ( #225 ) );
#188 = EDGE_LOOP( '', ( #226, #227, #228, #229 ) );
#189 = AXIS2_PLACEMENT_3D( '', #230, #231, #232 );
#190 = SURFACE_SIDE_STYLE( '', ( #233 ) );
#191 = EDGE_LOOP( '', ( #234, #235, #236, #237 ) );
#192 = AXIS2_PLACEMENT_3D( '', #238, #239, #240 );
#193 = SURFACE_SIDE_STYLE( '', ( #241 ) );
#194 = EDGE_LOOP( '', ( #242, #243, #244, #245 ) );
#195 = AXIS2_PLACEMENT_3D( '', #246, #247, #248 );
#196 = SURFACE_SIDE_STYLE( '', ( #249 ) );
#197 = EDGE_LOOP( '', ( #250, #251, #252, #253 ) );
#198 = AXIS2_PLACEMENT_3D( '', #254, #255, #256 );
#199 = SURFACE_SIDE_STYLE( '', ( #257 ) );
#200 = EDGE_LOOP( '', ( #258, #259, #260, #261 ) );
#201 = AXIS2_PLACEMENT_3D( '', #262, #263, #264 );
#202 = SURFACE_SIDE_STYLE( '', ( #265 ) );
#203 = EDGE_LOOP( '', ( #266, #267, #268, #269 ) );
#204 = AXIS2_PLACEMENT_3D( '', #270, #271, #272 );
#205 = SURFACE_SIDE_STYLE( '', ( #273 ) );
#206 = EDGE_LOOP( '', ( #274, #275, #276, #277 ) );
#207 = AXIS2_PLACEMENT_3D( '', #278, #279, #280 );
#208 = SURFACE_SIDE_STYLE( '', ( #281 ) );
#209 = EDGE_LOOP( '', ( #282, #283, #284, #285 ) );
#210 = AXIS2_PLACEMENT_3D( '', #286, #287, #288 );
#211 = SURFACE_SIDE_STYLE( '', ( #289 ) );
#212 = EDGE_LOOP( '', ( #290, #291, #292, #293 ) );
#213 = AXIS2_PLACEMENT_3D( '', #294, #295, #296 );
#214 = SURFACE_SIDE_STYLE( '', ( #297 ) );
#215 = EDGE_LOOP( '', ( #298, #299, #300, #301 ) );
#216 = AXIS2_PLACEMENT_3D( '', #302, #303, #304 );
#217 = SURFACE_SIDE_STYLE( '', ( #305 ) );
#218 = EDGE_LOOP( '', ( #306, #307, #308, #309 ) );
#219 = AXIS2_PLACEMENT_3D( '', #310, #311, #312 );
#220 = SURFACE_SIDE_STYLE( '', ( #313 ) );
#221 = EDGE_LOOP( '', ( #314, #315, #316, #317 ) );
#222 = AXIS2_PLACEMENT_3D( '', #318, #319, #320 );
#224 =  ( LENGTH_UNIT(  )NAMED_UNIT( #179 )SI_UNIT( .MILLI., .METRE. ) );
#225 = SURFACE_STYLE_FILL_AREA( #322 );
#226 = ORIENTED_EDGE( '', *, *, #323, .T. );
#227 = ORIENTED_EDGE( '', *, *, #324, .T. );
#228 = ORIENTED_EDGE( '', *, *, #325, .T. );
#229 = ORIENTED_EDGE( '', *, *, #326, .T. );
#230 = CARTESIAN_POINT( '', ( 6.45000000000000, 500.100000000000, -1.66500000000000 ) );
#231 = DIRECTION( '', ( 0.000000000000000, 1.00000000000000, 0.000000000000000 ) );
#232 = DIRECTION( '', ( 0.000000000000000, 0.000000000000000, 1.00000000000000 ) );
#233 = SURFACE_STYLE_FILL_AREA( #327 );
#234 = ORIENTED_EDGE( '', *, *, #328, .F. );
#235 = ORIENTED_EDGE( '', *, *, #329, .F. );
#236 = ORIENTED_EDGE( '', *, *, #330, .T. );
#237 = ORIENTED_EDGE( '', *, *, #331, .T. );
#238 = CARTESIAN_POINT( '', ( 6.35000000000000, -500.000000000000, 1.59000000000000 ) );
#239 = DIRECTION( '', ( 1.00000000000000, 0.000000000000000, 0.000000000000000 ) );
#240 = DIRECTION( '', ( 0.000000000000000, 0.000000000000000, -1.00000000000000 ) );
#241 = SURFACE_STYLE_FILL_AREA( #332 );
#242 = ORIENTED_EDGE( '', *, *, #333, .F. );
#243 = ORIENTED_EDGE( '', *, *, #334, .F. );
#244 = ORIENTED_EDGE( '', *, *, #335, .F. );
#245 = ORIENTED_EDGE( '', *, *, #336, .F. );
#246 = CARTESIAN_POINT( '', ( 6.45000000000000, -500.100000000000, -1.66500000000000 ) );
#247 = DIRECTION( '', ( 0.000000000000000, 1.00000000000000, 0.000000000000000 ) );
#248 = DIRECTION( '', ( 0.000000000000000, 0.000000000000000, 1.00000000000000 ) );
#249 = SURFACE_STYLE_FILL_AREA( #337 );
#250 = ORIENTED_EDGE( '', *, *, #338, .F. );
#251 = ORIENTED_EDGE( '', *, *, #339, .F. );
#252 = ORIENTED_EDGE( '', *, *, #340, .T. );
#253 = ORIENTED_EDGE( '', *, *, #329, .T. );
#254 = CARTESIAN_POINT( '', ( -6.35000000000000, -500.000000000000, 1.59000000000000 ) );
#255 = DIRECTION( '', ( -1.53666449643615E-16, 0.000000000000000, 1.00000000000000 ) );
#256 = DIRECTION( '', ( 1.00000000000000, 0.000000000000000, 1.53666449643615E-16 ) );
#257 = SURFACE_STYLE_FILL_AREA( #341 );
#258 = ORIENTED_EDGE( '', *, *, #342, .F. );
#259 = ORIENTED_EDGE( '', *, *, #343, .F. );
#260 = ORIENTED_EDGE( '', *, *, #344, .T. );
#261 = ORIENTED_EDGE( '', *, *, #339, .T. );
#262 = CARTESIAN_POINT( '', ( -6.35000000000000, -500.000000000000, -1.59000000000000 ) );
#263 = DIRECTION( '', ( -1.00000000000000, 0.000000000000000, 0.000000000000000 ) );
#264 = DIRECTION( '', ( 0.000000000000000, 0.000000000000000, 1.00000000000000 ) );
#265 = SURFACE_STYLE_FILL_AREA( #345 );
#266 = ORIENTED_EDGE( '', *, *, #324, .F. );
#267 = ORIENTED_EDGE( '', *, *, #346, .F. );
#268 = ORIENTED_EDGE( '', *, *, #336, .T. );
#269 = ORIENTED_EDGE( '', *, *, #347, .T. );
#270 = CARTESIAN_POINT( '', ( 6.45000000000000, -500.100000000000, -1.66500000000000 ) );
#271 = DIRECTION( '', ( 0.000000000000000, 0.000000000000000, -1.00000000000000 ) );
#272 = DIRECTION( '', ( -1.00000000000000, 0.000000000000000, 0.000000000000000 ) );
#273 = SURFACE_STYLE_FILL_AREA( #348 );
#274 = ORIENTED_EDGE( '', *, *, #342, .T. );
#275 = ORIENTED_EDGE( '', *, *, #338, .T. );
#276 = ORIENTED_EDGE( '', *, *, #328, .T. );
#277 = ORIENTED_EDGE( '', *, *, #349, .T. );
#278 = CARTESIAN_POINT( '', ( -6.35000000000000, 500.000000000000, 1.59000000000000 ) );
#279 = DIRECTION( '', ( 0.000000000000000, 1.00000000000000, 0.000000000000000 ) );
#280 = DIRECTION( '', ( 0.000000000000000, 0.000000000000000, 1.00000000000000 ) );
#281 = SURFACE_STYLE_FILL_AREA( #350 );
#282 = ORIENTED_EDGE( '', *, *, #349, .F. );
#283 = ORIENTED_EDGE( '', *, *, #331, .F. );
#284 = ORIENTED_EDGE( '', *, *, #351, .T. );
#285 = ORIENTED_EDGE( '', *, *, #343, .T. );
#286 = CARTESIAN_POINT( '', ( 6.35000000000000, -500.000000000000, -1.59000000000000 ) );
#287 = DIRECTION( '', ( 1.19518349722811E-16, 0.000000000000000, -1.00000000000000 ) );
#288 = DIRECTION( '', ( -1.00000000000000, 0.000000000000000, -1.19518349722811E-16 ) );
#289 = SURFACE_STYLE_FILL_AREA( #352 );
#290 = ORIENTED_EDGE( '', *, *, #344, .F. );
#291 = ORIENTED_EDGE( '', *, *, #351, .F. );
#292 = ORIENTED_EDGE( '', *, *, #330, .F. );
#293 = ORIENTED_EDGE( '', *, *, #340, .F. );
#294 = CARTESIAN_POINT( '', ( -6.35000000000000, -500.000000000000, 1.59000000000000 ) );
#295 = DIRECTION( '', ( 0.000000000000000, 1.00000000000000, 0.000000000000000 ) );
#296 = DIRECTION( '', ( 0.000000000000000, 0.000000000000000, 1.00000000000000 ) );
#297 = SURFACE_STYLE_FILL_AREA( #353 );
#298 = ORIENTED_EDGE( '', *, *, #325, .F. );
#299 = ORIENTED_EDGE( '', *, *, #347, .F. );
#300 = ORIENTED_EDGE( '', *, *, #335, .T. );
#301 = ORIENTED_EDGE( '', *, *, #354, .T. );
#302 = CARTESIAN_POINT( '', ( -6.45000000000000, -500.100000000000, -1.66500000000000 ) );
#303 = DIRECTION( '', ( -1.00000000000000, 0.000000000000000, 0.000000000000000 ) );
#304 = DIRECTION( '', ( 0.000000000000000, 0.000000000000000, 1.00000000000000 ) );
#305 = SURFACE_STYLE_FILL_AREA( #355 );
#306 = ORIENTED_EDGE( '', *, *, #326, .F. );
#307 = ORIENTED_EDGE( '', *, *, #354, .F. );
#308 = ORIENTED_EDGE( '', *, *, #334, .T. );
#309 = ORIENTED_EDGE( '', *, *, #356, .T. );
#310 = CARTESIAN_POINT( '', ( -6.45000000000000, -500.100000000000, 1.66500000000000 ) );
#311 = DIRECTION( '', ( -2.68949376120436E-16, 0.000000000000000, 1.00000000000000 ) );
#312 = DIRECTION( '', ( 1.00000000000000, 0.000000000000000, 2.68949376120435E-16 ) );
#313 = SURFACE_STYLE_FILL_AREA( #357 );
#314 = ORIENTED_EDGE( '', *, *, #323, .F. );
#315 = ORIENTED_EDGE( '', *, *, #356, .F. );
#316 = ORIENTED_EDGE( '', *, *, #333, .T. );
#317 = ORIENTED_EDGE( '', *, *, #346, .T. );
#318 = CARTESIAN_POINT( '', ( 6.45000000000000, -500.100000000000, 1.66500000000000 ) );
#319 = DIRECTION( '', ( 1.00000000000000, 0.000000000000000, 0.000000000000000 ) );
#320 = DIRECTION( '', ( 0.000000000000000, 0.000000000000000, -1.00000000000000 ) );
#322 = FILL_AREA_STYLE( '', ( #358 ) );
#323 = EDGE_CURVE( '', #359, #360, #361, .T. );
#324 = EDGE_CURVE( '', #360, #362, #363, .T. );
#325 = EDGE_CURVE( '', #362, #364, #365, .T. );
#326 = EDGE_CURVE( '', #364, #359, #366, .T. );
#327 = FILL_AREA_STYLE( '', ( #367 ) );
#328 = EDGE_CURVE( '', #368, #369, #370, .T. );
#329 = EDGE_CURVE( '', #371, #368, #372, .T. );
#330 = EDGE_CURVE( '', #371, #373, #374, .T. );
#331 = EDGE_CURVE( '', #373, #369, #375, .T. );
#332 = FILL_AREA_STYLE( '', ( #376 ) );
#333 = EDGE_CURVE( '', #377, #378, #379, .T. );
#334 = EDGE_CURVE( '', #380, #377, #381, .T. );
#335 = EDGE_CURVE( '', #382, #380, #383, .T. );
#336 = EDGE_CURVE( '', #378, #382, #384, .T. );
#337 = FILL_AREA_STYLE( '', ( #385 ) );
#338 = EDGE_CURVE( '', #386, #368, #387, .T. );
#339 = EDGE_CURVE( '', #388, #386, #389, .T. );
#340 = EDGE_CURVE( '', #388, #371, #390, .T. );
#341 = FILL_AREA_STYLE( '', ( #391 ) );
#342 = EDGE_CURVE( '', #392, #386, #393, .T. );
#343 = EDGE_CURVE( '', #394, #392, #395, .T. );
#344 = EDGE_CURVE( '', #394, #388, #396, .T. );
#345 = FILL_AREA_STYLE( '', ( #397 ) );
#346 = EDGE_CURVE( '', #378, #360, #398, .T. );
#347 = EDGE_CURVE( '', #382, #362, #399, .T. );
#348 = FILL_AREA_STYLE( '', ( #400 ) );
#349 = EDGE_CURVE( '', #369, #392, #401, .T. );
#350 = FILL_AREA_STYLE( '', ( #402 ) );
#351 = EDGE_CURVE( '', #373, #394, #403, .T. );
#352 = FILL_AREA_STYLE( '', ( #404 ) );
#353 = FILL_AREA_STYLE( '', ( #405 ) );
#354 = EDGE_CURVE( '', #380, #364, #406, .T. );
#355 = FILL_AREA_STYLE( '', ( #407 ) );
#356 = EDGE_CURVE( '', #377, #359, #408, .T. );
#357 = FILL_AREA_STYLE( '', ( #409 ) );
#358 = FILL_AREA_STYLE_COLOUR( '', #410 );
#359 = VERTEX_POINT( '', #411 );
#360 = VERTEX_POINT( '', #412 );
#361 = LINE( '', #413, #414 );
#362 = VERTEX_POINT( '', #415 );
#363 = LINE( '', #416, #417 );
#364 = VERTEX_POINT( '', #418 );
#365 = LINE( '', #419, #420 );
#366 = LINE( '', #421, #422 );
#367 = FILL_AREA_STYLE_COLOUR( '', #423 );
#368 = VERTEX_POINT( '', #424 );
#369 = VERTEX_POINT( '', #425 );
#370 = LINE( '', #426, #427 );
#371 = VERTEX_POINT( '', #428 );
#372 = LINE( '', #429, #430 );
#373 = VERTEX_POINT( '', #431 );
#374 = LINE( '', #432, #433 );
#375 = LINE( '', #434, #435 );
#376 = FILL_AREA_STYLE_COLOUR( '', #436 );
#377 = VERTEX_POINT( '', #437 );
#378 = VERTEX_POINT( '', #438 );
#379 = LINE( '', #439, #440 );
#380 = VERTEX_POINT( '', #441 );
#381 = LINE( '', #442, #443 );
#382 = VERTEX_POINT( '', #444 );
#383 = LINE( '', #445, #446 );
#384 = LINE( '', #447, #448 );
#385 = FILL_AREA_STYLE_COLOUR( '', #449 );
#386 = VERTEX_POINT( '', #450 );
#387 = LINE( '', #451, #452 );
#388 = VERTEX_POINT( '', #453 );
#389 = LINE( '', #454, #455 );
#390 = LINE( '', #456, #457 );
#391 = FILL_AREA_STYLE_COLOUR( '', #458 );
#392 = VERTEX_POINT( '', #459 );
#393 = LINE( '', #460, #461 );
#394 = VERTEX_POINT( '', #462 );
#395 = LINE( '', #463, #464 );
#396 = LINE( '', #465, #466 );
#397 = FILL_AREA_STYLE_COLOUR( '', #467 );
#398 = LINE( '', #468, #469 );
#399 = LINE( '', #470, #471 );
#400 = FILL_AREA_STYLE_COLOUR( '', #472 );
#401 = LINE( '', #473, #474 );
#402 = FILL_AREA_STYLE_COLOUR( '', #475 );
#403 = LINE( '', #476, #477 );
#404 = FILL_AREA_STYLE_COLOUR( '', #478 );
#405 = FILL_AREA_STYLE_COLOUR( '', #479 );
#406 = LINE( '', #480, #481 );
#407 = FILL_AREA_STYLE_COLOUR( '', #482 );
#408 = LINE( '', #483, #484 );
#409 = FILL_AREA_STYLE_COLOUR( '', #485 );
#410 = COLOUR_RGB( '', 1.00000000000000, 1.00000000000000, 1.00000000000000 );
#411 = CARTESIAN_POINT( '', ( 6.45000000000000, 500.100000000000, 1.66500000000000 ) );
#412 = CARTESIAN_POINT( '', ( 6.45000000000000, 500.100000000000, -1.66500000000000 ) );
#413 = CARTESIAN_POINT( '', ( 6.45000000000000, 500.100000000000, 1.66500000000000 ) );
#414 = VECTOR( '', #486, 1000.00000000000 );
#415 = CARTESIAN_POINT( '', ( -6.45000000000000, 500.100000000000, -1.66500000000000 ) );
#416 = CARTESIAN_POINT( '', ( 6.45000000000000, 500.100000000000, -1.66500000000000 ) );
#417 = VECTOR( '', #487, 1000.00000000000 );
#418 = CARTESIAN_POINT( '', ( -6.45000000000000, 500.100000000000, 1.66500000000000 ) );
#419 = CARTESIAN_POINT( '', ( -6.45000000000000, 500.100000000000, -1.66500000000000 ) );
#420 = VECTOR( '', #488, 1000.00000000000 );
#421 = CARTESIAN_POINT( '', ( -6.45000000000000, 500.100000000000, 1.66500000000000 ) );
#422 = VECTOR( '', #489, 1000.00000000000 );
#423 = COLOUR_RGB( '', 0.750000000000000, 0.695399999600000, 0.555000007200000 );
#424 = CARTESIAN_POINT( '', ( 6.35000000000000, 500.000000000000, 1.59000000000000 ) );
#425 = CARTESIAN_POINT( '', ( 6.35000000000000, 500.000000000000, -1.59000000000000 ) );
#426 = CARTESIAN_POINT( '', ( 6.35000000000000, 500.000000000000, 1.59000000000000 ) );
#427 = VECTOR( '', #490, 1000.00000000000 );
#428 = CARTESIAN_POINT( '', ( 6.35000000000000, -500.000000000000, 1.59000000000000 ) );
#429 = CARTESIAN_POINT( '', ( 6.35000000000000, -500.000000000000, 1.59000000000000 ) );
#430 = VECTOR( '', #491, 1000.00000000000 );
#431 = CARTESIAN_POINT( '', ( 6.35000000000000, -500.000000000000, -1.59000000000000 ) );
#432 = CARTESIAN_POINT( '', ( 6.35000000000000, -500.000000000000, 1.59000000000000 ) );
#433 = VECTOR( '', #492, 1000.00000000000 );
#434 = CARTESIAN_POINT( '', ( 6.35000000000000, -500.000000000000, -1.59000000000000 ) );
#435 = VECTOR( '', #493, 1000.00000000000 );
#436 = COLOUR_RGB( '', 1.00000000000000, 1.00000000000000, 1.00000000000000 );
#437 = CARTESIAN_POINT( '', ( 6.45000000000000, -500.100000000000, 1.66500000000000 ) );
#438 = CARTESIAN_POINT( '', ( 6.45000000000000, -500.100000000000, -1.66500000000000 ) );
#439 = CARTESIAN_POINT( '', ( 6.45000000000000, -500.100000000000, 1.66500000000000 ) );
#440 = VECTOR( '', #494, 1000.00000000000 );
#441 = CARTESIAN_POINT( '', ( -6.45000000000000, -500.100000000000, 1.66500000000000 ) );
#442 = CARTESIAN_POINT( '', ( -6.45000000000000, -500.100000000000, 1.66500000000000 ) );
#443 = VECTOR( '', #495, 1000.00000000000 );
#444 = CARTESIAN_POINT( '', ( -6.45000000000000, -500.100000000000, -1.66500000000000 ) );
#445 = CARTESIAN_POINT( '', ( -6.45000000000000, -500.100000000000, -1.66500000000000 ) );
#446 = VECTOR( '', #496, 1000.00000000000 );
#447 = CARTESIAN_POINT( '', ( 6.45000000000000, -500.100000000000, -1.66500000000000 ) );
#448 = VECTOR( '', #497, 1000.00000000000 );
#449 = COLOUR_RGB( '', 0.750000000000000, 0.695399999600000, 0.555000007200000 );
#450 = CARTESIAN_POINT( '', ( -6.35000000000000, 500.000000000000, 1.59000000000000 ) );
#451 = CARTESIAN_POINT( '', ( -6.35000000000000, 500.000000000000, 1.59000000000000 ) );
#452 = VECTOR( '', #498, 1000.00000000000 );
#453 = CARTESIAN_POINT( '', ( -6.35000000000000, -500.000000000000, 1.59000000000000 ) );
#454 = CARTESIAN_POINT( '', ( -6.35000000000000, -500.000000000000, 1.59000000000000 ) );
#455 = VECTOR( '', #499, 1000.00000000000 );
#456 = CARTESIAN_POINT( '', ( -6.35000000000000, -500.000000000000, 1.59000000000000 ) );
#457 = VECTOR( '', #500, 1000.00000000000 );
#458 = COLOUR_RGB( '', 0.750000000000000, 0.695399999600000, 0.555000007200000 );
#459 = CARTESIAN_POINT( '', ( -6.35000000000000, 500.000000000000, -1.59000000000000 ) );
#460 = CARTESIAN_POINT( '', ( -6.35000000000000, 500.000000000000, -1.59000000000000 ) );
#461 = VECTOR( '', #501, 1000.00000000000 );
#462 = CARTESIAN_POINT( '', ( -6.35000000000000, -500.000000000000, -1.59000000000000 ) );
#463 = CARTESIAN_POINT( '', ( -6.35000000000000, -500.000000000000, -1.59000000000000 ) );
#464 = VECTOR( '', #502, 1000.00000000000 );
#465 = CARTESIAN_POINT( '', ( -6.35000000000000, -500.000000000000, -1.59000000000000 ) );
#466 = VECTOR( '', #503, 1000.00000000000 );
#467 = COLOUR_RGB( '', 1.00000000000000, 1.00000000000000, 1.00000000000000 );
#468 = CARTESIAN_POINT( '', ( 6.45000000000000, -500.100000000000, -1.66500000000000 ) );
#469 = VECTOR( '', #504, 1000.00000000000 );
#470 = CARTESIAN_POINT( '', ( -6.45000000000000, -500.100000000000, -1.66500000000000 ) );
#471 = VECTOR( '', #505, 1000.00000000000 );
#472 = COLOUR_RGB( '', 0.750000000000000, 0.695399999600000, 0.555000007200000 );
#473 = CARTESIAN_POINT( '', ( 6.35000000000000, 500.000000000000, -1.59000000000000 ) );
#474 = VECTOR( '', #506, 1000.00000000000 );
#475 = COLOUR_RGB( '', 0.750000000000000, 0.695399999600000, 0.555000007200000 );
#476 = CARTESIAN_POINT( '', ( 6.35000000000000, -500.000000000000, -1.59000000000000 ) );
#477 = VECTOR( '', #507, 1000.00000000000 );
#478 = COLOUR_RGB( '', 0.750000000000000, 0.695399999600000, 0.555000007200000 );
#479 = COLOUR_RGB( '', 1.00000000000000, 1.00000000000000, 1.00000000000000 );
#480 = CARTESIAN_POINT( '', ( -6.45000000000000, -500.100000000000, 1.66500000000000 ) );
#481 = VECTOR( '', #508, 1000.00000000000 );
#482 = COLOUR_RGB( '', 1.00000000000000, 1.00000000000000, 1.00000000000000 );
#483 = CARTESIAN_POINT( '', ( 6.45000000000000, -500.100000000000, 1.66500000000000 ) );
#484 = VECTOR( '', #509, 1000.00000000000 );
#485 = COLOUR_RGB( '', 1.00000000000000, 1.00000000000000, 1.00000000000000 );
#486 = DIRECTION( '', ( 0.000000000000000, 0.000000000000000, -1.00000000000000 ) );
#487 = DIRECTION( '', ( -1.00000000000000, 0.000000000000000, 0.000000000000000 ) );
#488 = DIRECTION( '', ( 0.000000000000000, 0.000000000000000, 1.00000000000000 ) );
#489 = DIRECTION( '', ( 1.00000000000000, 0.000000000000000, 2.68949376120435E-16 ) );
#490 = DIRECTION( '', ( 0.000000000000000, 0.000000000000000, -1.00000000000000 ) );
#491 = DIRECTION( '', ( 0.000000000000000, 1.00000000000000, 0.000000000000000 ) );
#492 = DIRECTION( '', ( 0.000000000000000, 0.000000000000000, -1.00000000000000 ) );
#493 = DIRECTION( '', ( 0.000000000000000, 1.00000000000000, 0.000000000000000 ) );
#494 = DIRECTION( '', ( 0.000000000000000, 0.000000000000000, -1.00000000000000 ) );
#495 = DIRECTION( '', ( 1.00000000000000, 0.000000000000000, 2.68949376120435E-16 ) );
#496 = DIRECTION( '', ( 0.000000000000000, 0.000000000000000, 1.00000000000000 ) );
#497 = DIRECTION( '', ( -1.00000000000000, 0.000000000000000, 0.000000000000000 ) );
#498 = DIRECTION( '', ( 1.00000000000000, 0.000000000000000, 1.53666449643615E-16 ) );
#499 = DIRECTION( '', ( 0.000000000000000, 1.00000000000000, 0.000000000000000 ) );
#500 = DIRECTION( '', ( 1.00000000000000, 0.000000000000000, 1.53666449643615E-16 ) );
#501 = DIRECTION( '', ( 0.000000000000000, 0.000000000000000, 1.00000000000000 ) );
#502 = DIRECTION( '', ( 0.000000000000000, 1.00000000000000, 0.000000000000000 ) );
#503 = DIRECTION( '', ( 0.000000000000000, 0.000000000000000, 1.00000000000000 ) );
#504 = DIRECTION( '', ( 0.000000000000000, 1.00000000000000, 0.000000000000000 ) );
#505 = DIRECTION( '', ( 0.000000000000000, 1.00000000000000, 0.000000000000000 ) );
#506 = DIRECTION( '', ( -1.00000000000000, 0.000000000000000, -1.19518349722811E-16 ) );
#507 = DIRECTION( '', ( -1.00000000000000, 0.000000000000000, -1.19518349722811E-16 ) );
#508 = DIRECTION( '', ( 0.000000000000000, 1.00000000000000, 0.000000000000000 ) );
#509 = DIRECTION( '', ( 0.000000000000000, 1.00000000000000, 0.000000000000000 ) );
ENDSEC;
END-ISO-10303-21;
