ISO-10303-21;
HEADER;
/* Generated by software containing ST-Developer
 * from STEP Tools, Inc. (www.steptools.com) 
 */
/* OPTION: strings as raw bytes, not using required /X/ escapes */

FILE_DESCRIPTION(
/* description */ ('Unknown'),
/* implementation_level */ '2;1');

FILE_NAME(
/* name */ '331171302035_R1.1',
/* time_stamp */ '2019-07-09T14:36:22+02:00',
/* author */ ('Unknown'),
/* organization */ ('Unknown'),
/* preprocessor_version */ 'ST-DEVELOPER v16.7',
/* originating_system */ 'DEX',
/* authorisation */ $);

FILE_SCHEMA (('AUTOMOTIVE_DESIGN {1 0 10303 214 3 1 1}'));
ENDSEC;

DATA;
#10=PROPERTY_DEFINITION_REPRESENTATION(#14,#12);
#11=PROPERTY_DEFINITION_REPRESENTATION(#15,#13);
#12=REPRESENTATION('',(#16),#697);
#13=REPRESENTATION('',(#17),#697);
#14=PROPERTY_DEFINITION('pmi validation property','',#702);
#15=PROPERTY_DEFINITION('pmi validation property','',#702);
#16=VALUE_REPRESENTATION_ITEM('number of annotations',COUNT_MEASURE(0.));
#17=VALUE_REPRESENTATION_ITEM('number of views',COUNT_MEASURE(0.));
#18=SHAPE_REPRESENTATION_RELATIONSHIP('','',#421,#19);
#19=ADVANCED_BREP_SHAPE_REPRESENTATION('',(#419),#697);
#20=CYLINDRICAL_SURFACE('',#432,0.3);
#21=CYLINDRICAL_SURFACE('',#435,0.22);
#22=CYLINDRICAL_SURFACE('',#438,0.32);
#23=CYLINDRICAL_SURFACE('',#441,0.7153943323286);
#24=CYLINDRICAL_SURFACE('',#444,0.67);
#25=CYLINDRICAL_SURFACE('',#451,0.75);
#26=CYLINDRICAL_SURFACE('',#454,0.6353943323286);
#27=CYLINDRICAL_SURFACE('',#457,0.4);
#28=CYLINDRICAL_SURFACE('',#461,0.4);
#29=CIRCLE('',#424,0.22);
#30=CIRCLE('',#425,0.32);
#31=CIRCLE('',#426,0.7153943323286);
#32=CIRCLE('',#427,0.67);
#33=CIRCLE('',#428,0.75);
#34=CIRCLE('',#429,0.6353943323286);
#35=CIRCLE('',#430,0.4);
#36=CIRCLE('',#431,0.3);
#37=CIRCLE('',#433,0.3);
#38=CIRCLE('',#436,0.22);
#39=CIRCLE('',#439,0.32);
#40=CIRCLE('',#442,0.7153943323286);
#41=CIRCLE('',#445,0.67);
#42=CIRCLE('',#447,0.4);
#43=CIRCLE('',#450,0.4);
#44=CIRCLE('',#452,0.75);
#45=CIRCLE('',#455,0.6353943323286);
#46=CIRCLE('',#458,0.4);
#47=ORIENTED_EDGE('',*,*,#159,.F.);
#48=ORIENTED_EDGE('',*,*,#160,.F.);
#49=ORIENTED_EDGE('',*,*,#161,.F.);
#50=ORIENTED_EDGE('',*,*,#162,.F.);
#51=ORIENTED_EDGE('',*,*,#163,.F.);
#52=ORIENTED_EDGE('',*,*,#164,.F.);
#53=ORIENTED_EDGE('',*,*,#165,.F.);
#54=ORIENTED_EDGE('',*,*,#166,.F.);
#55=ORIENTED_EDGE('',*,*,#167,.F.);
#56=ORIENTED_EDGE('',*,*,#168,.F.);
#57=ORIENTED_EDGE('',*,*,#169,.F.);
#58=ORIENTED_EDGE('',*,*,#170,.F.);
#59=ORIENTED_EDGE('',*,*,#171,.F.);
#60=ORIENTED_EDGE('',*,*,#172,.F.);
#61=ORIENTED_EDGE('',*,*,#173,.F.);
#62=ORIENTED_EDGE('',*,*,#174,.F.);
#63=ORIENTED_EDGE('',*,*,#175,.F.);
#64=ORIENTED_EDGE('',*,*,#176,.F.);
#65=ORIENTED_EDGE('',*,*,#177,.T.);
#66=ORIENTED_EDGE('',*,*,#178,.F.);
#67=ORIENTED_EDGE('',*,*,#179,.F.);
#68=ORIENTED_EDGE('',*,*,#176,.T.);
#69=ORIENTED_EDGE('',*,*,#179,.T.);
#70=ORIENTED_EDGE('',*,*,#180,.F.);
#71=ORIENTED_EDGE('',*,*,#181,.F.);
#72=ORIENTED_EDGE('',*,*,#159,.T.);
#73=ORIENTED_EDGE('',*,*,#181,.T.);
#74=ORIENTED_EDGE('',*,*,#182,.F.);
#75=ORIENTED_EDGE('',*,*,#183,.F.);
#76=ORIENTED_EDGE('',*,*,#160,.T.);
#77=ORIENTED_EDGE('',*,*,#183,.T.);
#78=ORIENTED_EDGE('',*,*,#184,.F.);
#79=ORIENTED_EDGE('',*,*,#185,.F.);
#80=ORIENTED_EDGE('',*,*,#161,.T.);
#81=ORIENTED_EDGE('',*,*,#185,.T.);
#82=ORIENTED_EDGE('',*,*,#186,.F.);
#83=ORIENTED_EDGE('',*,*,#187,.F.);
#84=ORIENTED_EDGE('',*,*,#162,.T.);
#85=ORIENTED_EDGE('',*,*,#187,.T.);
#86=ORIENTED_EDGE('',*,*,#188,.F.);
#87=ORIENTED_EDGE('',*,*,#189,.F.);
#88=ORIENTED_EDGE('',*,*,#163,.T.);
#89=ORIENTED_EDGE('',*,*,#189,.T.);
#90=ORIENTED_EDGE('',*,*,#190,.F.);
#91=ORIENTED_EDGE('',*,*,#191,.F.);
#92=ORIENTED_EDGE('',*,*,#164,.T.);
#93=ORIENTED_EDGE('',*,*,#191,.T.);
#94=ORIENTED_EDGE('',*,*,#192,.F.);
#95=ORIENTED_EDGE('',*,*,#193,.F.);
#96=ORIENTED_EDGE('',*,*,#165,.T.);
#97=ORIENTED_EDGE('',*,*,#193,.T.);
#98=ORIENTED_EDGE('',*,*,#194,.F.);
#99=ORIENTED_EDGE('',*,*,#195,.F.);
#100=ORIENTED_EDGE('',*,*,#166,.T.);
#101=ORIENTED_EDGE('',*,*,#196,.T.);
#102=ORIENTED_EDGE('',*,*,#195,.T.);
#103=ORIENTED_EDGE('',*,*,#197,.F.);
#104=ORIENTED_EDGE('',*,*,#198,.F.);
#105=ORIENTED_EDGE('',*,*,#167,.T.);
#106=ORIENTED_EDGE('',*,*,#198,.T.);
#107=ORIENTED_EDGE('',*,*,#199,.F.);
#108=ORIENTED_EDGE('',*,*,#200,.F.);
#109=ORIENTED_EDGE('',*,*,#168,.T.);
#110=ORIENTED_EDGE('',*,*,#201,.T.);
#111=ORIENTED_EDGE('',*,*,#200,.T.);
#112=ORIENTED_EDGE('',*,*,#202,.F.);
#113=ORIENTED_EDGE('',*,*,#203,.F.);
#114=ORIENTED_EDGE('',*,*,#169,.T.);
#115=ORIENTED_EDGE('',*,*,#203,.T.);
#116=ORIENTED_EDGE('',*,*,#204,.F.);
#117=ORIENTED_EDGE('',*,*,#205,.F.);
#118=ORIENTED_EDGE('',*,*,#170,.T.);
#119=ORIENTED_EDGE('',*,*,#205,.T.);
#120=ORIENTED_EDGE('',*,*,#206,.F.);
#121=ORIENTED_EDGE('',*,*,#207,.F.);
#122=ORIENTED_EDGE('',*,*,#171,.T.);
#123=ORIENTED_EDGE('',*,*,#207,.T.);
#124=ORIENTED_EDGE('',*,*,#208,.F.);
#125=ORIENTED_EDGE('',*,*,#209,.F.);
#126=ORIENTED_EDGE('',*,*,#172,.T.);
#127=ORIENTED_EDGE('',*,*,#209,.T.);
#128=ORIENTED_EDGE('',*,*,#210,.F.);
#129=ORIENTED_EDGE('',*,*,#211,.F.);
#130=ORIENTED_EDGE('',*,*,#173,.T.);
#131=ORIENTED_EDGE('',*,*,#211,.T.);
#132=ORIENTED_EDGE('',*,*,#212,.F.);
#133=ORIENTED_EDGE('',*,*,#213,.F.);
#134=ORIENTED_EDGE('',*,*,#174,.T.);
#135=ORIENTED_EDGE('',*,*,#213,.T.);
#136=ORIENTED_EDGE('',*,*,#214,.F.);
#137=ORIENTED_EDGE('',*,*,#177,.F.);
#138=ORIENTED_EDGE('',*,*,#175,.T.);
#139=ORIENTED_EDGE('',*,*,#214,.T.);
#140=ORIENTED_EDGE('',*,*,#212,.T.);
#141=ORIENTED_EDGE('',*,*,#210,.T.);
#142=ORIENTED_EDGE('',*,*,#208,.T.);
#143=ORIENTED_EDGE('',*,*,#206,.T.);
#144=ORIENTED_EDGE('',*,*,#204,.T.);
#145=ORIENTED_EDGE('',*,*,#202,.T.);
#146=ORIENTED_EDGE('',*,*,#199,.T.);
#147=ORIENTED_EDGE('',*,*,#197,.T.);
#148=ORIENTED_EDGE('',*,*,#194,.T.);
#149=ORIENTED_EDGE('',*,*,#192,.T.);
#150=ORIENTED_EDGE('',*,*,#190,.T.);
#151=ORIENTED_EDGE('',*,*,#188,.T.);
#152=ORIENTED_EDGE('',*,*,#186,.T.);
#153=ORIENTED_EDGE('',*,*,#184,.T.);
#154=ORIENTED_EDGE('',*,*,#182,.T.);
#155=ORIENTED_EDGE('',*,*,#180,.T.);
#156=ORIENTED_EDGE('',*,*,#178,.T.);
#157=ORIENTED_EDGE('',*,*,#201,.F.);
#158=ORIENTED_EDGE('',*,*,#196,.F.);
#159=EDGE_CURVE('',#215,#216,#253,.T.);
#160=EDGE_CURVE('',#217,#215,#29,.T.);
#161=EDGE_CURVE('',#218,#217,#254,.T.);
#162=EDGE_CURVE('',#219,#218,#30,.T.);
#163=EDGE_CURVE('',#220,#219,#255,.T.);
#164=EDGE_CURVE('',#221,#220,#31,.T.);
#165=EDGE_CURVE('',#222,#221,#256,.T.);
#166=EDGE_CURVE('',#223,#222,#32,.T.);
#167=EDGE_CURVE('',#224,#223,#257,.T.);
#168=EDGE_CURVE('',#225,#224,#258,.T.);
#169=EDGE_CURVE('',#226,#225,#259,.T.);
#170=EDGE_CURVE('',#227,#226,#33,.T.);
#171=EDGE_CURVE('',#228,#227,#260,.T.);
#172=EDGE_CURVE('',#229,#228,#34,.T.);
#173=EDGE_CURVE('',#230,#229,#261,.T.);
#174=EDGE_CURVE('',#231,#230,#35,.T.);
#175=EDGE_CURVE('',#232,#231,#262,.T.);
#176=EDGE_CURVE('',#216,#232,#36,.T.);
#177=EDGE_CURVE('',#232,#233,#263,.T.);
#178=EDGE_CURVE('',#234,#233,#37,.T.);
#179=EDGE_CURVE('',#216,#234,#264,.T.);
#180=EDGE_CURVE('',#235,#234,#265,.T.);
#181=EDGE_CURVE('',#215,#235,#266,.T.);
#182=EDGE_CURVE('',#236,#235,#38,.T.);
#183=EDGE_CURVE('',#217,#236,#267,.T.);
#184=EDGE_CURVE('',#237,#236,#268,.T.);
#185=EDGE_CURVE('',#218,#237,#269,.T.);
#186=EDGE_CURVE('',#238,#237,#39,.T.);
#187=EDGE_CURVE('',#219,#238,#270,.T.);
#188=EDGE_CURVE('',#239,#238,#271,.T.);
#189=EDGE_CURVE('',#220,#239,#272,.T.);
#190=EDGE_CURVE('',#240,#239,#40,.T.);
#191=EDGE_CURVE('',#221,#240,#273,.T.);
#192=EDGE_CURVE('',#241,#240,#274,.T.);
#193=EDGE_CURVE('',#222,#241,#275,.T.);
#194=EDGE_CURVE('',#242,#241,#41,.T.);
#195=EDGE_CURVE('',#223,#242,#276,.T.);
#196=EDGE_CURVE('',#243,#243,#42,.F.);
#197=EDGE_CURVE('',#244,#242,#277,.T.);
#198=EDGE_CURVE('',#224,#244,#278,.T.);
#199=EDGE_CURVE('',#245,#244,#279,.T.);
#200=EDGE_CURVE('',#225,#245,#280,.T.);
#201=EDGE_CURVE('',#246,#246,#43,.T.);
#202=EDGE_CURVE('',#247,#245,#281,.T.);
#203=EDGE_CURVE('',#226,#247,#282,.T.);
#204=EDGE_CURVE('',#248,#247,#44,.T.);
#205=EDGE_CURVE('',#227,#248,#283,.T.);
#206=EDGE_CURVE('',#249,#248,#284,.T.);
#207=EDGE_CURVE('',#228,#249,#285,.T.);
#208=EDGE_CURVE('',#250,#249,#45,.T.);
#209=EDGE_CURVE('',#229,#250,#286,.T.);
#210=EDGE_CURVE('',#251,#250,#287,.T.);
#211=EDGE_CURVE('',#230,#251,#288,.T.);
#212=EDGE_CURVE('',#252,#251,#46,.T.);
#213=EDGE_CURVE('',#231,#252,#289,.T.);
#214=EDGE_CURVE('',#233,#252,#290,.T.);
#215=VERTEX_POINT('',#583);
#216=VERTEX_POINT('',#584);
#217=VERTEX_POINT('',#586);
#218=VERTEX_POINT('',#588);
#219=VERTEX_POINT('',#590);
#220=VERTEX_POINT('',#592);
#221=VERTEX_POINT('',#594);
#222=VERTEX_POINT('',#596);
#223=VERTEX_POINT('',#598);
#224=VERTEX_POINT('',#600);
#225=VERTEX_POINT('',#602);
#226=VERTEX_POINT('',#604);
#227=VERTEX_POINT('',#606);
#228=VERTEX_POINT('',#608);
#229=VERTEX_POINT('',#610);
#230=VERTEX_POINT('',#612);
#231=VERTEX_POINT('',#614);
#232=VERTEX_POINT('',#616);
#233=VERTEX_POINT('',#620);
#234=VERTEX_POINT('',#622);
#235=VERTEX_POINT('',#626);
#236=VERTEX_POINT('',#630);
#237=VERTEX_POINT('',#634);
#238=VERTEX_POINT('',#638);
#239=VERTEX_POINT('',#642);
#240=VERTEX_POINT('',#646);
#241=VERTEX_POINT('',#650);
#242=VERTEX_POINT('',#654);
#243=VERTEX_POINT('',#658);
#244=VERTEX_POINT('',#660);
#245=VERTEX_POINT('',#664);
#246=VERTEX_POINT('',#668);
#247=VERTEX_POINT('',#670);
#248=VERTEX_POINT('',#674);
#249=VERTEX_POINT('',#678);
#250=VERTEX_POINT('',#682);
#251=VERTEX_POINT('',#686);
#252=VERTEX_POINT('',#690);
#253=LINE('',#582,#291);
#254=LINE('',#587,#292);
#255=LINE('',#591,#293);
#256=LINE('',#595,#294);
#257=LINE('',#599,#295);
#258=LINE('',#601,#296);
#259=LINE('',#603,#297);
#260=LINE('',#607,#298);
#261=LINE('',#611,#299);
#262=LINE('',#615,#300);
#263=LINE('',#619,#301);
#264=LINE('',#623,#302);
#265=LINE('',#625,#303);
#266=LINE('',#627,#304);
#267=LINE('',#631,#305);
#268=LINE('',#633,#306);
#269=LINE('',#635,#307);
#270=LINE('',#639,#308);
#271=LINE('',#641,#309);
#272=LINE('',#643,#310);
#273=LINE('',#647,#311);
#274=LINE('',#649,#312);
#275=LINE('',#651,#313);
#276=LINE('',#655,#314);
#277=LINE('',#659,#315);
#278=LINE('',#661,#316);
#279=LINE('',#663,#317);
#280=LINE('',#665,#318);
#281=LINE('',#669,#319);
#282=LINE('',#671,#320);
#283=LINE('',#675,#321);
#284=LINE('',#677,#322);
#285=LINE('',#679,#323);
#286=LINE('',#683,#324);
#287=LINE('',#685,#325);
#288=LINE('',#687,#326);
#289=LINE('',#691,#327);
#290=LINE('',#693,#328);
#291=VECTOR('',#466,1000.);
#292=VECTOR('',#469,1000.);
#293=VECTOR('',#472,1000.);
#294=VECTOR('',#475,1000.);
#295=VECTOR('',#478,1000.);
#296=VECTOR('',#479,1000.);
#297=VECTOR('',#480,1000.);
#298=VECTOR('',#483,1000.);
#299=VECTOR('',#486,1000.);
#300=VECTOR('',#489,1000.);
#301=VECTOR('',#494,1000.);
#302=VECTOR('',#497,1000.);
#303=VECTOR('',#500,1000.);
#304=VECTOR('',#501,1000.);
#305=VECTOR('',#506,1000.);
#306=VECTOR('',#509,1000.);
#307=VECTOR('',#510,1000.);
#308=VECTOR('',#515,1000.);
#309=VECTOR('',#518,1000.);
#310=VECTOR('',#519,1000.);
#311=VECTOR('',#524,1000.);
#312=VECTOR('',#527,1000.);
#313=VECTOR('',#528,1000.);
#314=VECTOR('',#533,1000.);
#315=VECTOR('',#538,1000.);
#316=VECTOR('',#539,1000.);
#317=VECTOR('',#542,1000.);
#318=VECTOR('',#543,1000.);
#319=VECTOR('',#548,1000.);
#320=VECTOR('',#549,1000.);
#321=VECTOR('',#554,1000.);
#322=VECTOR('',#557,1000.);
#323=VECTOR('',#558,1000.);
#324=VECTOR('',#563,1000.);
#325=VECTOR('',#566,1000.);
#326=VECTOR('',#567,1000.);
#327=VECTOR('',#572,1000.);
#328=VECTOR('',#575,1000.);
#329=EDGE_LOOP('',(#47,#48,#49,#50,#51,#52,#53,#54,#55,#56,#57,#58,#59,
#60,#61,#62,#63,#64));
#330=EDGE_LOOP('',(#65,#66,#67,#68));
#331=EDGE_LOOP('',(#69,#70,#71,#72));
#332=EDGE_LOOP('',(#73,#74,#75,#76));
#333=EDGE_LOOP('',(#77,#78,#79,#80));
#334=EDGE_LOOP('',(#81,#82,#83,#84));
#335=EDGE_LOOP('',(#85,#86,#87,#88));
#336=EDGE_LOOP('',(#89,#90,#91,#92));
#337=EDGE_LOOP('',(#93,#94,#95,#96));
#338=EDGE_LOOP('',(#97,#98,#99,#100));
#339=EDGE_LOOP('',(#101));
#340=EDGE_LOOP('',(#102,#103,#104,#105));
#341=EDGE_LOOP('',(#106,#107,#108,#109));
#342=EDGE_LOOP('',(#110));
#343=EDGE_LOOP('',(#111,#112,#113,#114));
#344=EDGE_LOOP('',(#115,#116,#117,#118));
#345=EDGE_LOOP('',(#119,#120,#121,#122));
#346=EDGE_LOOP('',(#123,#124,#125,#126));
#347=EDGE_LOOP('',(#127,#128,#129,#130));
#348=EDGE_LOOP('',(#131,#132,#133,#134));
#349=EDGE_LOOP('',(#135,#136,#137,#138));
#350=EDGE_LOOP('',(#139,#140,#141,#142,#143,#144,#145,#146,#147,#148,#149,
#150,#151,#152,#153,#154,#155,#156));
#351=EDGE_LOOP('',(#157));
#352=EDGE_LOOP('',(#158));
#353=FACE_BOUND('',#329,.T.);
#354=FACE_BOUND('',#330,.T.);
#355=FACE_BOUND('',#331,.T.);
#356=FACE_BOUND('',#332,.T.);
#357=FACE_BOUND('',#333,.T.);
#358=FACE_BOUND('',#334,.T.);
#359=FACE_BOUND('',#335,.T.);
#360=FACE_BOUND('',#336,.T.);
#361=FACE_BOUND('',#337,.T.);
#362=FACE_BOUND('',#338,.T.);
#363=FACE_BOUND('',#339,.T.);
#364=FACE_BOUND('',#340,.T.);
#365=FACE_BOUND('',#341,.T.);
#366=FACE_BOUND('',#342,.T.);
#367=FACE_BOUND('',#343,.T.);
#368=FACE_BOUND('',#344,.T.);
#369=FACE_BOUND('',#345,.T.);
#370=FACE_BOUND('',#346,.T.);
#371=FACE_BOUND('',#347,.T.);
#372=FACE_BOUND('',#348,.T.);
#373=FACE_BOUND('',#349,.T.);
#374=FACE_BOUND('',#350,.T.);
#375=FACE_BOUND('',#351,.T.);
#376=FACE_BOUND('',#352,.T.);
#377=PLANE('',#423);
#378=PLANE('',#434);
#379=PLANE('',#437);
#380=PLANE('',#440);
#381=PLANE('',#443);
#382=PLANE('',#446);
#383=PLANE('',#448);
#384=PLANE('',#449);
#385=PLANE('',#453);
#386=PLANE('',#456);
#387=PLANE('',#459);
#388=PLANE('',#460);
#389=ADVANCED_FACE('',(#353),#377,.F.);
#390=ADVANCED_FACE('',(#354),#20,.T.);
#391=ADVANCED_FACE('',(#355),#378,.T.);
#392=ADVANCED_FACE('',(#356),#21,.F.);
#393=ADVANCED_FACE('',(#357),#379,.T.);
#394=ADVANCED_FACE('',(#358),#22,.F.);
#395=ADVANCED_FACE('',(#359),#380,.T.);
#396=ADVANCED_FACE('',(#360),#23,.T.);
#397=ADVANCED_FACE('',(#361),#381,.T.);
#398=ADVANCED_FACE('',(#362),#24,.F.);
#399=ADVANCED_FACE('',(#363,#364),#382,.T.);
#400=ADVANCED_FACE('',(#365),#383,.T.);
#401=ADVANCED_FACE('',(#366,#367),#384,.T.);
#402=ADVANCED_FACE('',(#368),#25,.T.);
#403=ADVANCED_FACE('',(#369),#385,.T.);
#404=ADVANCED_FACE('',(#370),#26,.F.);
#405=ADVANCED_FACE('',(#371),#386,.T.);
#406=ADVANCED_FACE('',(#372),#27,.T.);
#407=ADVANCED_FACE('',(#373),#387,.T.);
#408=ADVANCED_FACE('',(#374),#388,.T.);
#409=ADVANCED_FACE('',(#375,#376),#28,.F.);
#410=CLOSED_SHELL('',(#389,#390,#391,#392,#393,#394,#395,#396,#397,#398,
#399,#400,#401,#402,#403,#404,#405,#406,#407,#408,#409));
#411=STYLED_ITEM('',(#412),#419);
#412=PRESENTATION_STYLE_ASSIGNMENT((#413));
#413=SURFACE_STYLE_USAGE(.BOTH.,#414);
#414=SURFACE_SIDE_STYLE('',(#415));
#415=SURFACE_STYLE_FILL_AREA(#416);
#416=FILL_AREA_STYLE('',(#417));
#417=FILL_AREA_STYLE_COLOUR('',#418);
#418=COLOUR_RGB('',0.870000004768372,0.702343702316284,0.348906189203262);
#419=MANIFOLD_SOLID_BREP('3G2030035B',#410);
#420=SHAPE_DEFINITION_REPRESENTATION(#702,#421);
#421=SHAPE_REPRESENTATION('331171302035_R1.1',(#422),#697);
#422=AXIS2_PLACEMENT_3D('',#580,#462,#463);
#423=AXIS2_PLACEMENT_3D('',#581,#464,#465);
#424=AXIS2_PLACEMENT_3D('',#585,#467,#468);
#425=AXIS2_PLACEMENT_3D('',#589,#470,#471);
#426=AXIS2_PLACEMENT_3D('',#593,#473,#474);
#427=AXIS2_PLACEMENT_3D('',#597,#476,#477);
#428=AXIS2_PLACEMENT_3D('',#605,#481,#482);
#429=AXIS2_PLACEMENT_3D('',#609,#484,#485);
#430=AXIS2_PLACEMENT_3D('',#613,#487,#488);
#431=AXIS2_PLACEMENT_3D('',#617,#490,#491);
#432=AXIS2_PLACEMENT_3D('',#618,#492,#493);
#433=AXIS2_PLACEMENT_3D('',#621,#495,#496);
#434=AXIS2_PLACEMENT_3D('',#624,#498,#499);
#435=AXIS2_PLACEMENT_3D('',#628,#502,#503);
#436=AXIS2_PLACEMENT_3D('',#629,#504,#505);
#437=AXIS2_PLACEMENT_3D('',#632,#507,#508);
#438=AXIS2_PLACEMENT_3D('',#636,#511,#512);
#439=AXIS2_PLACEMENT_3D('',#637,#513,#514);
#440=AXIS2_PLACEMENT_3D('',#640,#516,#517);
#441=AXIS2_PLACEMENT_3D('',#644,#520,#521);
#442=AXIS2_PLACEMENT_3D('',#645,#522,#523);
#443=AXIS2_PLACEMENT_3D('',#648,#525,#526);
#444=AXIS2_PLACEMENT_3D('',#652,#529,#530);
#445=AXIS2_PLACEMENT_3D('',#653,#531,#532);
#446=AXIS2_PLACEMENT_3D('',#656,#534,#535);
#447=AXIS2_PLACEMENT_3D('',#657,#536,#537);
#448=AXIS2_PLACEMENT_3D('',#662,#540,#541);
#449=AXIS2_PLACEMENT_3D('',#666,#544,#545);
#450=AXIS2_PLACEMENT_3D('',#667,#546,#547);
#451=AXIS2_PLACEMENT_3D('',#672,#550,#551);
#452=AXIS2_PLACEMENT_3D('',#673,#552,#553);
#453=AXIS2_PLACEMENT_3D('',#676,#555,#556);
#454=AXIS2_PLACEMENT_3D('',#680,#559,#560);
#455=AXIS2_PLACEMENT_3D('',#681,#561,#562);
#456=AXIS2_PLACEMENT_3D('',#684,#564,#565);
#457=AXIS2_PLACEMENT_3D('',#688,#568,#569);
#458=AXIS2_PLACEMENT_3D('',#689,#570,#571);
#459=AXIS2_PLACEMENT_3D('',#692,#573,#574);
#460=AXIS2_PLACEMENT_3D('',#694,#576,#577);
#461=AXIS2_PLACEMENT_3D('',#695,#578,#579);
#462=DIRECTION('',(0.,0.,1.));
#463=DIRECTION('',(1.,0.,0.));
#464=DIRECTION('',(0.,0.,1.));
#465=DIRECTION('',(1.,0.,0.));
#466=DIRECTION('',(0.,-1.,0.));
#467=DIRECTION('',(0.,0.,-1.));
#468=DIRECTION('',(1.614869854E-14,1.,0.));
#469=DIRECTION('',(1.,0.,0.));
#470=DIRECTION('',(0.,0.,-1.));
#471=DIRECTION('',(-0.0132500619416598,-0.999912214076087,0.));
#472=DIRECTION('',(-0.999912214076087,0.0132500619416598,0.));
#473=DIRECTION('',(0.,0.,1.));
#474=DIRECTION('',(-0.0654396041378728,-0.997856531877343,0.));
#475=DIRECTION('',(0.997856531877343,-0.0654396041378728,0.));
#476=DIRECTION('',(0.,0.,-1.));
#477=DIRECTION('',(0.,-1.,0.));
#478=DIRECTION('',(-1.,0.,0.));
#479=DIRECTION('',(0.,1.,0.));
#480=DIRECTION('',(1.,0.,0.));
#481=DIRECTION('',(0.,0.,1.));
#482=DIRECTION('',(0.0654396041378728,0.997856531877343,0.));
#483=DIRECTION('',(-0.997856531877343,0.0654396041378728,0.));
#484=DIRECTION('',(0.,0.,-1.));
#485=DIRECTION('',(0.0132500619416598,0.999912214076087,0.));
#486=DIRECTION('',(0.999912214076087,-0.0132500619416598,0.));
#487=DIRECTION('',(0.,0.,1.));
#488=DIRECTION('',(0.,1.,0.));
#489=DIRECTION('',(-1.,0.,0.));
#490=DIRECTION('',(0.,0.,1.));
#491=DIRECTION('',(0.,-1.,0.));
#492=DIRECTION('',(0.,0.,1.));
#493=DIRECTION('',(1.,0.,0.));
#494=DIRECTION('',(0.,0.,1.));
#495=DIRECTION('',(0.,0.,1.));
#496=DIRECTION('',(0.,-1.,0.));
#497=DIRECTION('',(0.,0.,1.));
#498=DIRECTION('',(-1.,0.,0.));
#499=DIRECTION('',(0.,0.,1.));
#500=DIRECTION('',(0.,-1.,0.));
#501=DIRECTION('',(0.,0.,1.));
#502=DIRECTION('',(0.,0.,1.));
#503=DIRECTION('',(1.,0.,0.));
#504=DIRECTION('',(0.,0.,-1.));
#505=DIRECTION('',(1.614869854E-14,1.,0.));
#506=DIRECTION('',(0.,0.,1.));
#507=DIRECTION('',(0.,-1.,0.));
#508=DIRECTION('',(0.,0.,-1.));
#509=DIRECTION('',(1.,0.,0.));
#510=DIRECTION('',(0.,0.,1.));
#511=DIRECTION('',(0.,0.,1.));
#512=DIRECTION('',(1.,0.,0.));
#513=DIRECTION('',(0.,0.,-1.));
#514=DIRECTION('',(-0.0132500619416598,-0.999912214076087,0.));
#515=DIRECTION('',(0.,0.,1.));
#516=DIRECTION('',(0.0132500619416598,0.999912214076087,0.));
#517=DIRECTION('',(0.,0.,-1.));
#518=DIRECTION('',(-0.999912214076087,0.0132500619416598,0.));
#519=DIRECTION('',(0.,0.,1.));
#520=DIRECTION('',(0.,0.,1.));
#521=DIRECTION('',(1.,0.,0.));
#522=DIRECTION('',(0.,0.,1.));
#523=DIRECTION('',(-0.0654396041378728,-0.997856531877343,0.));
#524=DIRECTION('',(0.,0.,1.));
#525=DIRECTION('',(-0.0654396041378728,-0.997856531877343,0.));
#526=DIRECTION('',(-0.997856531877343,0.0654396041378728,0.));
#527=DIRECTION('',(0.997856531877343,-0.0654396041378728,0.));
#528=DIRECTION('',(0.,0.,1.));
#529=DIRECTION('',(0.,0.,1.));
#530=DIRECTION('',(1.,0.,0.));
#531=DIRECTION('',(0.,0.,-1.));
#532=DIRECTION('',(0.,-1.,0.));
#533=DIRECTION('',(0.,0.,1.));
#534=DIRECTION('',(0.,1.,0.));
#535=DIRECTION('',(1.,0.,0.));
#536=DIRECTION('',(0.,1.,0.));
#537=DIRECTION('',(0.,0.,1.));
#538=DIRECTION('',(-1.,0.,0.));
#539=DIRECTION('',(0.,0.,1.));
#540=DIRECTION('',(1.,0.,0.));
#541=DIRECTION('',(0.,1.,0.));
#542=DIRECTION('',(0.,1.,0.));
#543=DIRECTION('',(0.,0.,1.));
#544=DIRECTION('',(0.,-1.,0.));
#545=DIRECTION('',(0.,0.,-1.));
#546=DIRECTION('',(0.,1.,0.));
#547=DIRECTION('',(-1.,0.,0.));
#548=DIRECTION('',(1.,0.,0.));
#549=DIRECTION('',(0.,0.,1.));
#550=DIRECTION('',(0.,0.,1.));
#551=DIRECTION('',(1.,0.,0.));
#552=DIRECTION('',(0.,0.,1.));
#553=DIRECTION('',(0.0654396041378728,0.997856531877343,0.));
#554=DIRECTION('',(0.,0.,1.));
#555=DIRECTION('',(0.0654396041378728,0.997856531877343,0.));
#556=DIRECTION('',(0.,0.,-1.));
#557=DIRECTION('',(-0.997856531877343,0.0654396041378728,0.));
#558=DIRECTION('',(0.,0.,1.));
#559=DIRECTION('',(0.,0.,1.));
#560=DIRECTION('',(1.,0.,0.));
#561=DIRECTION('',(0.,0.,-1.));
#562=DIRECTION('',(0.0132500619416598,0.999912214076087,0.));
#563=DIRECTION('',(0.,0.,1.));
#564=DIRECTION('',(-0.0132500619416598,-0.999912214076087,0.));
#565=DIRECTION('',(-0.999912214076087,0.0132500619416598,0.));
#566=DIRECTION('',(0.999912214076087,-0.0132500619416598,0.));
#567=DIRECTION('',(0.,0.,1.));
#568=DIRECTION('',(0.,0.,1.));
#569=DIRECTION('',(1.,0.,0.));
#570=DIRECTION('',(0.,0.,1.));
#571=DIRECTION('',(0.,1.,0.));
#572=DIRECTION('',(0.,0.,1.));
#573=DIRECTION('',(0.,1.,0.));
#574=DIRECTION('',(1.,0.,0.));
#575=DIRECTION('',(-1.,0.,0.));
#576=DIRECTION('',(0.,0.,1.));
#577=DIRECTION('',(1.,0.,0.));
#578=DIRECTION('',(0.,-1.,0.));
#579=DIRECTION('',(0.,0.,-1.));
#580=CARTESIAN_POINT('',(0.,0.,0.));
#581=CARTESIAN_POINT('',(0.,0.,-1.));
#582=CARTESIAN_POINT('',(2.7,2.98,-1.));
#583=CARTESIAN_POINT('',(2.7,2.98,-1.));
#584=CARTESIAN_POINT('',(2.7,2.9,-1.));
#585=CARTESIAN_POINT('',(2.7,3.2,-1.));
#586=CARTESIAN_POINT('',(2.7,3.42,-1.));
#587=CARTESIAN_POINT('',(0.4,3.42,-1.));
#588=CARTESIAN_POINT('',(0.4,3.42,-1.));
#589=CARTESIAN_POINT('',(0.4,3.1,-1.));
#590=CARTESIAN_POINT('',(0.3957599801787,2.780028091496,-1.));
#591=CARTESIAN_POINT('',(2.259479019216,2.755331530776,-1.));
#592=CARTESIAN_POINT('',(2.259479019216,2.755331530776,-1.));
#593=CARTESIAN_POINT('',(2.25,2.04,-1.));
#594=CARTESIAN_POINT('',(2.20318487809,1.326139092618,-1.));
#595=CARTESIAN_POINT('',(0.7938445347725,1.418563876358,-1.));
#596=CARTESIAN_POINT('',(0.7938445347725,1.418563876358,-1.));
#597=CARTESIAN_POINT('',(0.7500000000001,0.75,-1.));
#598=CARTESIAN_POINT('',(0.7500000000001,0.08,-1.));
#599=CARTESIAN_POINT('',(3.,0.08,-1.));
#600=CARTESIAN_POINT('',(3.,0.08,-1.));
#601=CARTESIAN_POINT('',(3.,0.,-1.));
#602=CARTESIAN_POINT('',(3.,0.,-1.));
#603=CARTESIAN_POINT('',(0.7500000000001,0.,-1.));
#604=CARTESIAN_POINT('',(0.7500000000001,0.,-1.));
#605=CARTESIAN_POINT('',(0.7500000000001,0.75,-1.));
#606=CARTESIAN_POINT('',(0.7990797031035,1.498392398908,-1.));
#607=CARTESIAN_POINT('',(2.208420046421,1.405967615168,-1.));
#608=CARTESIAN_POINT('',(2.208420046421,1.405967615168,-1.));
#609=CARTESIAN_POINT('',(2.25,2.04,-1.));
#610=CARTESIAN_POINT('',(2.258419014261,2.67533855365,-1.));
#611=CARTESIAN_POINT('',(0.3946999752233,2.70003511437,-1.));
#612=CARTESIAN_POINT('',(0.3946999752233,2.70003511437,-1.));
#613=CARTESIAN_POINT('',(0.4,3.1,-1.));
#614=CARTESIAN_POINT('',(0.4,3.5,-1.));
#615=CARTESIAN_POINT('',(2.7,3.5,-1.));
#616=CARTESIAN_POINT('',(2.7,3.5,-1.));
#617=CARTESIAN_POINT('',(2.7,3.2,-1.));
#618=CARTESIAN_POINT('',(2.7,3.2,-1.));
#619=CARTESIAN_POINT('',(2.7,3.5,-1.));
#620=CARTESIAN_POINT('',(2.7,3.5,1.));
#621=CARTESIAN_POINT('',(2.7,3.2,1.));
#622=CARTESIAN_POINT('',(2.7,2.9,1.));
#623=CARTESIAN_POINT('',(2.7,2.9,-1.));
#624=CARTESIAN_POINT('',(2.7,2.98,-1.));
#625=CARTESIAN_POINT('',(2.7,2.98,1.));
#626=CARTESIAN_POINT('',(2.7,2.98,1.));
#627=CARTESIAN_POINT('',(2.7,2.98,-1.));
#628=CARTESIAN_POINT('',(2.7,3.2,-1.));
#629=CARTESIAN_POINT('',(2.7,3.2,1.));
#630=CARTESIAN_POINT('',(2.7,3.42,1.));
#631=CARTESIAN_POINT('',(2.7,3.42,-1.));
#632=CARTESIAN_POINT('',(0.4,3.42,-1.));
#633=CARTESIAN_POINT('',(0.4,3.42,1.));
#634=CARTESIAN_POINT('',(0.4,3.42,1.));
#635=CARTESIAN_POINT('',(0.4,3.42,-1.));
#636=CARTESIAN_POINT('',(0.4,3.1,-1.));
#637=CARTESIAN_POINT('',(0.4,3.1,1.));
#638=CARTESIAN_POINT('',(0.3957599801787,2.780028091496,1.));
#639=CARTESIAN_POINT('',(0.3957599801787,2.780028091496,-1.));
#640=CARTESIAN_POINT('',(2.259479019216,2.755331530776,-1.));
#641=CARTESIAN_POINT('',(2.259479019216,2.755331530776,1.));
#642=CARTESIAN_POINT('',(2.259479019216,2.755331530776,1.));
#643=CARTESIAN_POINT('',(2.259479019216,2.755331530776,-1.));
#644=CARTESIAN_POINT('',(2.25,2.04,-1.));
#645=CARTESIAN_POINT('',(2.25,2.04,1.));
#646=CARTESIAN_POINT('',(2.20318487809,1.326139092618,1.));
#647=CARTESIAN_POINT('',(2.20318487809,1.326139092618,-1.));
#648=CARTESIAN_POINT('',(0.7938445347725,1.418563876358,-1.));
#649=CARTESIAN_POINT('',(0.7938445347725,1.418563876358,1.));
#650=CARTESIAN_POINT('',(0.7938445347725,1.418563876358,1.));
#651=CARTESIAN_POINT('',(0.7938445347725,1.418563876358,-1.));
#652=CARTESIAN_POINT('',(0.7500000000001,0.75,-1.));
#653=CARTESIAN_POINT('',(0.7500000000001,0.75,1.));
#654=CARTESIAN_POINT('',(0.7500000000001,0.08,1.));
#655=CARTESIAN_POINT('',(0.7500000000001,0.08,-1.));
#656=CARTESIAN_POINT('',(3.,0.08,-1.));
#657=CARTESIAN_POINT('',(1.75,0.0800000000000002,0.));
#658=CARTESIAN_POINT('',(1.75,0.0800000000000002,0.4));
#659=CARTESIAN_POINT('',(3.,0.08,1.));
#660=CARTESIAN_POINT('',(3.,0.08,1.));
#661=CARTESIAN_POINT('',(3.,0.08,-1.));
#662=CARTESIAN_POINT('',(3.,0.,-1.));
#663=CARTESIAN_POINT('',(3.,0.,1.));
#664=CARTESIAN_POINT('',(3.,0.,1.));
#665=CARTESIAN_POINT('',(3.,0.,-1.));
#666=CARTESIAN_POINT('',(0.7500000000001,0.,-1.));
#667=CARTESIAN_POINT('',(1.75,0.,0.));
#668=CARTESIAN_POINT('',(1.35,0.,0.));
#669=CARTESIAN_POINT('',(0.7500000000001,0.,1.));
#670=CARTESIAN_POINT('',(0.7500000000001,0.,1.));
#671=CARTESIAN_POINT('',(0.7500000000001,0.,-1.));
#672=CARTESIAN_POINT('',(0.7500000000001,0.75,-1.));
#673=CARTESIAN_POINT('',(0.7500000000001,0.75,1.));
#674=CARTESIAN_POINT('',(0.7990797031035,1.498392398908,1.));
#675=CARTESIAN_POINT('',(0.7990797031035,1.498392398908,-1.));
#676=CARTESIAN_POINT('',(2.208420046421,1.405967615168,-1.));
#677=CARTESIAN_POINT('',(2.208420046421,1.405967615168,1.));
#678=CARTESIAN_POINT('',(2.208420046421,1.405967615168,1.));
#679=CARTESIAN_POINT('',(2.208420046421,1.405967615168,-1.));
#680=CARTESIAN_POINT('',(2.25,2.04,-1.));
#681=CARTESIAN_POINT('',(2.25,2.04,1.));
#682=CARTESIAN_POINT('',(2.258419014261,2.67533855365,1.));
#683=CARTESIAN_POINT('',(2.258419014261,2.67533855365,-1.));
#684=CARTESIAN_POINT('',(0.3946999752233,2.70003511437,-1.));
#685=CARTESIAN_POINT('',(0.3946999752233,2.70003511437,1.));
#686=CARTESIAN_POINT('',(0.3946999752233,2.70003511437,1.));
#687=CARTESIAN_POINT('',(0.3946999752233,2.70003511437,-1.));
#688=CARTESIAN_POINT('',(0.4,3.1,-1.));
#689=CARTESIAN_POINT('',(0.4,3.1,1.));
#690=CARTESIAN_POINT('',(0.4,3.5,1.));
#691=CARTESIAN_POINT('',(0.4,3.5,-1.));
#692=CARTESIAN_POINT('',(2.7,3.5,-1.));
#693=CARTESIAN_POINT('',(2.7,3.5,1.));
#694=CARTESIAN_POINT('',(0.,0.,1.));
#695=CARTESIAN_POINT('',(1.75,5.02493781056044,0.));
#696=MECHANICAL_DESIGN_GEOMETRIC_PRESENTATION_REPRESENTATION('',(#411),
#697);
#697=(
GEOMETRIC_REPRESENTATION_CONTEXT(3)
GLOBAL_UNCERTAINTY_ASSIGNED_CONTEXT((#698))
GLOBAL_UNIT_ASSIGNED_CONTEXT((#701,#700,#699))
REPRESENTATION_CONTEXT('331171302035_R1.1','TOP_LEVEL_ASSEMBLY_PART')
);
#698=UNCERTAINTY_MEASURE_WITH_UNIT(LENGTH_MEASURE(0.005),#701,
'DISTANCE_ACCURACY_VALUE','Maximum Tolerance applied to model');
#699=(
NAMED_UNIT(*)
SI_UNIT($,.STERADIAN.)
SOLID_ANGLE_UNIT()
);
#700=(
NAMED_UNIT(*)
PLANE_ANGLE_UNIT()
SI_UNIT($,.RADIAN.)
);
#701=(
LENGTH_UNIT()
NAMED_UNIT(*)
SI_UNIT(.MILLI.,.METRE.)
);
#702=PRODUCT_DEFINITION_SHAPE('','',#703);
#703=PRODUCT_DEFINITION('','',#705,#704);
#704=PRODUCT_DEFINITION_CONTEXT('',#711,'design');
#705=PRODUCT_DEFINITION_FORMATION_WITH_SPECIFIED_SOURCE('','',#707,
 .NOT_KNOWN.);
#706=PRODUCT_RELATED_PRODUCT_CATEGORY('','',(#707));
#707=PRODUCT('331171302035_R1.1','331171302035_R1.1',
'331171302035_R1.1',(#709));
#708=PRODUCT_CATEGORY('','');
#709=PRODUCT_CONTEXT('',#711,'mechanical');
#710=APPLICATION_PROTOCOL_DEFINITION('international standard',
'automotive_design',2010,#711);
#711=APPLICATION_CONTEXT(
'core data for automotive mechanical design processes');
ENDSEC;
END-ISO-10303-21;
