ISO-10303-21;
HEADER;
/* Generated by software containing ST-Developer
 * from STEP Tools, Inc. (www.steptools.com) 
 */
/* OPTION: strings as raw bytes, not using required /X/ escapes */

FILE_DESCRIPTION(
/* description */ ('Unknown'),
/* implementation_level */ '2;1');

FILE_NAME(
/* name */ '78201449321',
/* time_stamp */ '2021-04-12T17:41:47+02:00',
/* author */ ('Unknown'),
/* organization */ ('Unknown'),
/* preprocessor_version */ 'ST-DEVELOPER v16.7',
/* originating_system */ 'DEX',
/* authorisation */ $);

FILE_SCHEMA (('AUTOMOTIVE_DESIGN {1 0 10303 214 3 1 1}'));
ENDSEC;

DATA;
#10=PROPERTY_DEFINITION_REPRESENTATION(#14,#12);
#11=PROPERTY_DEFINITION_REPRESENTATION(#15,#13);
#12=REPRESENTATION('',(#16),#737);
#13=REPRESENTATION('',(#17),#737);
#14=PROPERTY_DEFINITION('pmi validation property','',#742);
#15=PROPERTY_DEFINITION('pmi validation property','',#742);
#16=VALUE_REPRESENTATION_ITEM('number of annotations',COUNT_MEASURE(0.));
#17=VALUE_REPRESENTATION_ITEM('number of views',COUNT_MEASURE(0.));
#18=SHAPE_REPRESENTATION_RELATIONSHIP('','',#419,#19);
#19=ADVANCED_BREP_SHAPE_REPRESENTATION('',(#417),#737);
#20=TOROIDAL_SURFACE('',#450,15.,1.);
#21=TOROIDAL_SURFACE('',#452,15.,1.);
#22=TOROIDAL_SURFACE('',#458,10.25,1.);
#23=TOROIDAL_SURFACE('',#460,10.25,1.);
#24=TOROIDAL_SURFACE('',#466,10.25,1.);
#25=TOROIDAL_SURFACE('',#468,10.25,1.);
#26=TOROIDAL_SURFACE('',#474,15.,1.);
#27=TOROIDAL_SURFACE('',#476,15.,1.);
#28=CIRCLE('',#423,16.);
#29=CIRCLE('',#424,16.);
#30=CIRCLE('',#428,9.25);
#31=CIRCLE('',#429,9.25);
#32=CIRCLE('',#432,9.25);
#33=CIRCLE('',#433,9.25);
#34=CIRCLE('',#435,16.);
#35=CIRCLE('',#436,16.);
#36=CIRCLE('',#438,10.25);
#37=CIRCLE('',#439,10.25);
#38=CIRCLE('',#440,15.);
#39=CIRCLE('',#441,15.);
#40=CIRCLE('',#443,15.);
#41=CIRCLE('',#444,15.);
#42=CIRCLE('',#445,10.25);
#43=CIRCLE('',#446,10.25);
#44=CIRCLE('',#448,1.);
#45=CIRCLE('',#449,1.);
#46=CIRCLE('',#451,1.);
#47=CIRCLE('',#453,1.);
#48=CIRCLE('',#456,1.);
#49=CIRCLE('',#457,1.);
#50=CIRCLE('',#459,1.);
#51=CIRCLE('',#461,1.);
#52=CIRCLE('',#464,1.);
#53=CIRCLE('',#465,1.);
#54=CIRCLE('',#467,1.);
#55=CIRCLE('',#469,1.);
#56=CIRCLE('',#472,1.);
#57=CIRCLE('',#473,1.);
#58=CIRCLE('',#475,1.);
#59=CIRCLE('',#477,1.);
#60=CYLINDRICAL_SURFACE('',#422,16.);
#61=CYLINDRICAL_SURFACE('',#427,9.25);
#62=CYLINDRICAL_SURFACE('',#431,9.25);
#63=CYLINDRICAL_SURFACE('',#434,16.);
#64=CYLINDRICAL_SURFACE('',#447,1.);
#65=CYLINDRICAL_SURFACE('',#454,1.);
#66=CYLINDRICAL_SURFACE('',#455,1.);
#67=CYLINDRICAL_SURFACE('',#462,1.);
#68=CYLINDRICAL_SURFACE('',#463,1.);
#69=CYLINDRICAL_SURFACE('',#470,1.);
#70=CYLINDRICAL_SURFACE('',#471,1.);
#71=CYLINDRICAL_SURFACE('',#478,1.);
#72=ORIENTED_EDGE('',*,*,#184,.T.);
#73=ORIENTED_EDGE('',*,*,#185,.T.);
#74=ORIENTED_EDGE('',*,*,#186,.F.);
#75=ORIENTED_EDGE('',*,*,#187,.T.);
#76=ORIENTED_EDGE('',*,*,#188,.T.);
#77=ORIENTED_EDGE('',*,*,#189,.T.);
#78=ORIENTED_EDGE('',*,*,#184,.F.);
#79=ORIENTED_EDGE('',*,*,#190,.T.);
#80=ORIENTED_EDGE('',*,*,#191,.T.);
#81=ORIENTED_EDGE('',*,*,#192,.T.);
#82=ORIENTED_EDGE('',*,*,#188,.F.);
#83=ORIENTED_EDGE('',*,*,#193,.T.);
#84=ORIENTED_EDGE('',*,*,#194,.F.);
#85=ORIENTED_EDGE('',*,*,#195,.T.);
#86=ORIENTED_EDGE('',*,*,#196,.T.);
#87=ORIENTED_EDGE('',*,*,#197,.T.);
#88=ORIENTED_EDGE('',*,*,#196,.F.);
#89=ORIENTED_EDGE('',*,*,#198,.T.);
#90=ORIENTED_EDGE('',*,*,#199,.T.);
#91=ORIENTED_EDGE('',*,*,#200,.T.);
#92=ORIENTED_EDGE('',*,*,#199,.F.);
#93=ORIENTED_EDGE('',*,*,#201,.T.);
#94=ORIENTED_EDGE('',*,*,#202,.T.);
#95=ORIENTED_EDGE('',*,*,#203,.T.);
#96=ORIENTED_EDGE('',*,*,#202,.F.);
#97=ORIENTED_EDGE('',*,*,#204,.T.);
#98=ORIENTED_EDGE('',*,*,#194,.T.);
#99=ORIENTED_EDGE('',*,*,#205,.T.);
#100=ORIENTED_EDGE('',*,*,#186,.T.);
#101=ORIENTED_EDGE('',*,*,#206,.T.);
#102=ORIENTED_EDGE('',*,*,#191,.F.);
#103=ORIENTED_EDGE('',*,*,#207,.T.);
#104=ORIENTED_EDGE('',*,*,#208,.T.);
#105=ORIENTED_EDGE('',*,*,#209,.T.);
#106=ORIENTED_EDGE('',*,*,#210,.T.);
#107=ORIENTED_EDGE('',*,*,#211,.T.);
#108=ORIENTED_EDGE('',*,*,#212,.T.);
#109=ORIENTED_EDGE('',*,*,#213,.T.);
#110=ORIENTED_EDGE('',*,*,#214,.T.);
#111=ORIENTED_EDGE('',*,*,#215,.T.);
#112=ORIENTED_EDGE('',*,*,#216,.T.);
#113=ORIENTED_EDGE('',*,*,#217,.T.);
#114=ORIENTED_EDGE('',*,*,#218,.T.);
#115=ORIENTED_EDGE('',*,*,#219,.T.);
#116=ORIENTED_EDGE('',*,*,#220,.T.);
#117=ORIENTED_EDGE('',*,*,#221,.T.);
#118=ORIENTED_EDGE('',*,*,#222,.T.);
#119=ORIENTED_EDGE('',*,*,#223,.T.);
#120=ORIENTED_EDGE('',*,*,#224,.F.);
#121=ORIENTED_EDGE('',*,*,#215,.F.);
#122=ORIENTED_EDGE('',*,*,#225,.F.);
#123=ORIENTED_EDGE('',*,*,#193,.F.);
#124=ORIENTED_EDGE('',*,*,#225,.T.);
#125=ORIENTED_EDGE('',*,*,#214,.F.);
#126=ORIENTED_EDGE('',*,*,#226,.F.);
#127=ORIENTED_EDGE('',*,*,#207,.F.);
#128=ORIENTED_EDGE('',*,*,#224,.T.);
#129=ORIENTED_EDGE('',*,*,#190,.F.);
#130=ORIENTED_EDGE('',*,*,#227,.F.);
#131=ORIENTED_EDGE('',*,*,#212,.F.);
#132=ORIENTED_EDGE('',*,*,#226,.T.);
#133=ORIENTED_EDGE('',*,*,#213,.F.);
#134=ORIENTED_EDGE('',*,*,#227,.T.);
#135=ORIENTED_EDGE('',*,*,#187,.F.);
#136=ORIENTED_EDGE('',*,*,#228,.F.);
#137=ORIENTED_EDGE('',*,*,#223,.F.);
#138=ORIENTED_EDGE('',*,*,#229,.F.);
#139=ORIENTED_EDGE('',*,*,#197,.F.);
#140=ORIENTED_EDGE('',*,*,#229,.T.);
#141=ORIENTED_EDGE('',*,*,#222,.F.);
#142=ORIENTED_EDGE('',*,*,#230,.F.);
#143=ORIENTED_EDGE('',*,*,#205,.F.);
#144=ORIENTED_EDGE('',*,*,#228,.T.);
#145=ORIENTED_EDGE('',*,*,#200,.F.);
#146=ORIENTED_EDGE('',*,*,#231,.F.);
#147=ORIENTED_EDGE('',*,*,#220,.F.);
#148=ORIENTED_EDGE('',*,*,#230,.T.);
#149=ORIENTED_EDGE('',*,*,#221,.F.);
#150=ORIENTED_EDGE('',*,*,#231,.T.);
#151=ORIENTED_EDGE('',*,*,#203,.F.);
#152=ORIENTED_EDGE('',*,*,#232,.F.);
#153=ORIENTED_EDGE('',*,*,#195,.F.);
#154=ORIENTED_EDGE('',*,*,#233,.F.);
#155=ORIENTED_EDGE('',*,*,#211,.F.);
#156=ORIENTED_EDGE('',*,*,#233,.T.);
#157=ORIENTED_EDGE('',*,*,#204,.F.);
#158=ORIENTED_EDGE('',*,*,#234,.F.);
#159=ORIENTED_EDGE('',*,*,#208,.F.);
#160=ORIENTED_EDGE('',*,*,#232,.T.);
#161=ORIENTED_EDGE('',*,*,#210,.F.);
#162=ORIENTED_EDGE('',*,*,#235,.F.);
#163=ORIENTED_EDGE('',*,*,#198,.F.);
#164=ORIENTED_EDGE('',*,*,#234,.T.);
#165=ORIENTED_EDGE('',*,*,#201,.F.);
#166=ORIENTED_EDGE('',*,*,#235,.T.);
#167=ORIENTED_EDGE('',*,*,#209,.F.);
#168=ORIENTED_EDGE('',*,*,#236,.F.);
#169=ORIENTED_EDGE('',*,*,#192,.F.);
#170=ORIENTED_EDGE('',*,*,#237,.F.);
#171=ORIENTED_EDGE('',*,*,#219,.F.);
#172=ORIENTED_EDGE('',*,*,#237,.T.);
#173=ORIENTED_EDGE('',*,*,#206,.F.);
#174=ORIENTED_EDGE('',*,*,#238,.F.);
#175=ORIENTED_EDGE('',*,*,#216,.F.);
#176=ORIENTED_EDGE('',*,*,#236,.T.);
#177=ORIENTED_EDGE('',*,*,#218,.F.);
#178=ORIENTED_EDGE('',*,*,#239,.F.);
#179=ORIENTED_EDGE('',*,*,#189,.F.);
#180=ORIENTED_EDGE('',*,*,#238,.T.);
#181=ORIENTED_EDGE('',*,*,#185,.F.);
#182=ORIENTED_EDGE('',*,*,#239,.T.);
#183=ORIENTED_EDGE('',*,*,#217,.F.);
#184=EDGE_CURVE('',#240,#241,#272,.T.);
#185=EDGE_CURVE('',#241,#242,#273,.F.);
#186=EDGE_CURVE('',#243,#242,#274,.T.);
#187=EDGE_CURVE('',#243,#240,#275,.T.);
#188=EDGE_CURVE('',#244,#245,#276,.T.);
#189=EDGE_CURVE('',#245,#241,#28,.F.);
#190=EDGE_CURVE('',#240,#244,#29,.T.);
#191=EDGE_CURVE('',#246,#247,#277,.T.);
#192=EDGE_CURVE('',#247,#245,#278,.F.);
#193=EDGE_CURVE('',#244,#246,#279,.T.);
#194=EDGE_CURVE('',#248,#249,#280,.T.);
#195=EDGE_CURVE('',#248,#250,#281,.F.);
#196=EDGE_CURVE('',#250,#251,#282,.T.);
#197=EDGE_CURVE('',#251,#249,#283,.T.);
#198=EDGE_CURVE('',#250,#252,#30,.F.);
#199=EDGE_CURVE('',#252,#253,#284,.T.);
#200=EDGE_CURVE('',#253,#251,#31,.T.);
#201=EDGE_CURVE('',#252,#254,#285,.F.);
#202=EDGE_CURVE('',#254,#255,#286,.T.);
#203=EDGE_CURVE('',#255,#253,#287,.T.);
#204=EDGE_CURVE('',#254,#248,#32,.F.);
#205=EDGE_CURVE('',#249,#255,#33,.T.);
#206=EDGE_CURVE('',#242,#247,#34,.F.);
#207=EDGE_CURVE('',#246,#243,#35,.T.);
#208=EDGE_CURVE('',#256,#257,#36,.T.);
#209=EDGE_CURVE('',#257,#258,#288,.T.);
#210=EDGE_CURVE('',#258,#259,#37,.T.);
#211=EDGE_CURVE('',#259,#256,#289,.T.);
#212=EDGE_CURVE('',#260,#261,#38,.F.);
#213=EDGE_CURVE('',#261,#262,#290,.F.);
#214=EDGE_CURVE('',#262,#263,#39,.F.);
#215=EDGE_CURVE('',#263,#260,#291,.F.);
#216=EDGE_CURVE('',#264,#265,#40,.T.);
#217=EDGE_CURVE('',#265,#266,#292,.T.);
#218=EDGE_CURVE('',#266,#267,#41,.T.);
#219=EDGE_CURVE('',#267,#264,#293,.T.);
#220=EDGE_CURVE('',#268,#269,#42,.F.);
#221=EDGE_CURVE('',#269,#270,#294,.F.);
#222=EDGE_CURVE('',#270,#271,#43,.F.);
#223=EDGE_CURVE('',#271,#268,#295,.F.);
#224=EDGE_CURVE('',#260,#244,#44,.T.);
#225=EDGE_CURVE('',#246,#263,#45,.T.);
#226=EDGE_CURVE('',#243,#262,#46,.T.);
#227=EDGE_CURVE('',#261,#240,#47,.T.);
#228=EDGE_CURVE('',#268,#251,#48,.T.);
#229=EDGE_CURVE('',#249,#271,#49,.T.);
#230=EDGE_CURVE('',#255,#270,#50,.T.);
#231=EDGE_CURVE('',#269,#253,#51,.T.);
#232=EDGE_CURVE('',#250,#259,#52,.T.);
#233=EDGE_CURVE('',#256,#248,#53,.T.);
#234=EDGE_CURVE('',#257,#254,#54,.T.);
#235=EDGE_CURVE('',#252,#258,#55,.T.);
#236=EDGE_CURVE('',#245,#267,#56,.T.);
#237=EDGE_CURVE('',#264,#247,#57,.T.);
#238=EDGE_CURVE('',#265,#242,#58,.T.);
#239=EDGE_CURVE('',#241,#266,#59,.T.);
#240=VERTEX_POINT('',#624);
#241=VERTEX_POINT('',#625);
#242=VERTEX_POINT('',#627);
#243=VERTEX_POINT('',#629);
#244=VERTEX_POINT('',#633);
#245=VERTEX_POINT('',#634);
#246=VERTEX_POINT('',#639);
#247=VERTEX_POINT('',#640);
#248=VERTEX_POINT('',#645);
#249=VERTEX_POINT('',#646);
#250=VERTEX_POINT('',#648);
#251=VERTEX_POINT('',#650);
#252=VERTEX_POINT('',#654);
#253=VERTEX_POINT('',#656);
#254=VERTEX_POINT('',#660);
#255=VERTEX_POINT('',#662);
#256=VERTEX_POINT('',#672);
#257=VERTEX_POINT('',#673);
#258=VERTEX_POINT('',#675);
#259=VERTEX_POINT('',#677);
#260=VERTEX_POINT('',#680);
#261=VERTEX_POINT('',#681);
#262=VERTEX_POINT('',#683);
#263=VERTEX_POINT('',#685);
#264=VERTEX_POINT('',#689);
#265=VERTEX_POINT('',#690);
#266=VERTEX_POINT('',#692);
#267=VERTEX_POINT('',#694);
#268=VERTEX_POINT('',#697);
#269=VERTEX_POINT('',#698);
#270=VERTEX_POINT('',#700);
#271=VERTEX_POINT('',#702);
#272=LINE('',#623,#296);
#273=LINE('',#626,#297);
#274=LINE('',#628,#298);
#275=LINE('',#630,#299);
#276=LINE('',#632,#300);
#277=LINE('',#638,#301);
#278=LINE('',#641,#302);
#279=LINE('',#642,#303);
#280=LINE('',#644,#304);
#281=LINE('',#647,#305);
#282=LINE('',#649,#306);
#283=LINE('',#651,#307);
#284=LINE('',#655,#308);
#285=LINE('',#659,#309);
#286=LINE('',#661,#310);
#287=LINE('',#663,#311);
#288=LINE('',#674,#312);
#289=LINE('',#678,#313);
#290=LINE('',#682,#314);
#291=LINE('',#686,#315);
#292=LINE('',#691,#316);
#293=LINE('',#695,#317);
#294=LINE('',#699,#318);
#295=LINE('',#703,#319);
#296=VECTOR('',#483,1000.);
#297=VECTOR('',#484,1000.);
#298=VECTOR('',#485,1000.);
#299=VECTOR('',#486,1000.);
#300=VECTOR('',#489,1000.);
#301=VECTOR('',#496,1000.);
#302=VECTOR('',#497,1000.);
#303=VECTOR('',#498,1000.);
#304=VECTOR('',#501,1000.);
#305=VECTOR('',#502,1000.);
#306=VECTOR('',#503,1000.);
#307=VECTOR('',#504,1000.);
#308=VECTOR('',#509,1000.);
#309=VECTOR('',#514,1000.);
#310=VECTOR('',#515,1000.);
#311=VECTOR('',#516,1000.);
#312=VECTOR('',#533,1000.);
#313=VECTOR('',#536,1000.);
#314=VECTOR('',#539,1000.);
#315=VECTOR('',#542,1000.);
#316=VECTOR('',#547,1000.);
#317=VECTOR('',#550,1000.);
#318=VECTOR('',#553,1000.);
#319=VECTOR('',#556,1000.);
#320=EDGE_LOOP('',(#72,#73,#74,#75));
#321=EDGE_LOOP('',(#76,#77,#78,#79));
#322=EDGE_LOOP('',(#80,#81,#82,#83));
#323=EDGE_LOOP('',(#84,#85,#86,#87));
#324=EDGE_LOOP('',(#88,#89,#90,#91));
#325=EDGE_LOOP('',(#92,#93,#94,#95));
#326=EDGE_LOOP('',(#96,#97,#98,#99));
#327=EDGE_LOOP('',(#100,#101,#102,#103));
#328=EDGE_LOOP('',(#104,#105,#106,#107));
#329=EDGE_LOOP('',(#108,#109,#110,#111));
#330=EDGE_LOOP('',(#112,#113,#114,#115));
#331=EDGE_LOOP('',(#116,#117,#118,#119));
#332=EDGE_LOOP('',(#120,#121,#122,#123));
#333=EDGE_LOOP('',(#124,#125,#126,#127));
#334=EDGE_LOOP('',(#128,#129,#130,#131));
#335=EDGE_LOOP('',(#132,#133,#134,#135));
#336=EDGE_LOOP('',(#136,#137,#138,#139));
#337=EDGE_LOOP('',(#140,#141,#142,#143));
#338=EDGE_LOOP('',(#144,#145,#146,#147));
#339=EDGE_LOOP('',(#148,#149,#150,#151));
#340=EDGE_LOOP('',(#152,#153,#154,#155));
#341=EDGE_LOOP('',(#156,#157,#158,#159));
#342=EDGE_LOOP('',(#160,#161,#162,#163));
#343=EDGE_LOOP('',(#164,#165,#166,#167));
#344=EDGE_LOOP('',(#168,#169,#170,#171));
#345=EDGE_LOOP('',(#172,#173,#174,#175));
#346=EDGE_LOOP('',(#176,#177,#178,#179));
#347=EDGE_LOOP('',(#180,#181,#182,#183));
#348=FACE_BOUND('',#320,.T.);
#349=FACE_BOUND('',#321,.T.);
#350=FACE_BOUND('',#322,.T.);
#351=FACE_BOUND('',#323,.T.);
#352=FACE_BOUND('',#324,.T.);
#353=FACE_BOUND('',#325,.T.);
#354=FACE_BOUND('',#326,.T.);
#355=FACE_BOUND('',#327,.T.);
#356=FACE_BOUND('',#328,.T.);
#357=FACE_BOUND('',#329,.T.);
#358=FACE_BOUND('',#330,.T.);
#359=FACE_BOUND('',#331,.T.);
#360=FACE_BOUND('',#332,.T.);
#361=FACE_BOUND('',#333,.T.);
#362=FACE_BOUND('',#334,.T.);
#363=FACE_BOUND('',#335,.T.);
#364=FACE_BOUND('',#336,.T.);
#365=FACE_BOUND('',#337,.T.);
#366=FACE_BOUND('',#338,.T.);
#367=FACE_BOUND('',#339,.T.);
#368=FACE_BOUND('',#340,.T.);
#369=FACE_BOUND('',#341,.T.);
#370=FACE_BOUND('',#342,.T.);
#371=FACE_BOUND('',#343,.T.);
#372=FACE_BOUND('',#344,.T.);
#373=FACE_BOUND('',#345,.T.);
#374=FACE_BOUND('',#346,.T.);
#375=FACE_BOUND('',#347,.T.);
#376=PLANE('',#421);
#377=PLANE('',#425);
#378=PLANE('',#426);
#379=PLANE('',#430);
#380=PLANE('',#437);
#381=PLANE('',#442);
#382=ADVANCED_FACE('',(#348),#376,.T.);
#383=ADVANCED_FACE('',(#349),#60,.T.);
#384=ADVANCED_FACE('',(#350),#377,.T.);
#385=ADVANCED_FACE('',(#351),#378,.F.);
#386=ADVANCED_FACE('',(#352),#61,.F.);
#387=ADVANCED_FACE('',(#353),#379,.F.);
#388=ADVANCED_FACE('',(#354),#62,.F.);
#389=ADVANCED_FACE('',(#355),#63,.T.);
#390=ADVANCED_FACE('',(#356,#357),#380,.F.);
#391=ADVANCED_FACE('',(#358,#359),#381,.T.);
#392=ADVANCED_FACE('',(#360),#64,.T.);
#393=ADVANCED_FACE('',(#361),#20,.T.);
#394=ADVANCED_FACE('',(#362),#21,.T.);
#395=ADVANCED_FACE('',(#363),#65,.T.);
#396=ADVANCED_FACE('',(#364),#66,.T.);
#397=ADVANCED_FACE('',(#365),#22,.T.);
#398=ADVANCED_FACE('',(#366),#23,.T.);
#399=ADVANCED_FACE('',(#367),#67,.T.);
#400=ADVANCED_FACE('',(#368),#68,.T.);
#401=ADVANCED_FACE('',(#369),#24,.T.);
#402=ADVANCED_FACE('',(#370),#25,.T.);
#403=ADVANCED_FACE('',(#371),#69,.T.);
#404=ADVANCED_FACE('',(#372),#70,.T.);
#405=ADVANCED_FACE('',(#373),#26,.T.);
#406=ADVANCED_FACE('',(#374),#27,.T.);
#407=ADVANCED_FACE('',(#375),#71,.T.);
#408=CLOSED_SHELL('',(#382,#383,#384,#385,#386,#387,#388,#389,#390,#391,
#392,#393,#394,#395,#396,#397,#398,#399,#400,#401,#402,#403,#404,#405,#406,
#407));
#409=STYLED_ITEM('',(#410),#417);
#410=PRESENTATION_STYLE_ASSIGNMENT((#411));
#411=SURFACE_STYLE_USAGE(.BOTH.,#412);
#412=SURFACE_SIDE_STYLE('',(#413));
#413=SURFACE_STYLE_FILL_AREA(#414);
#414=FILL_AREA_STYLE('',(#415));
#415=FILL_AREA_STYLE_COLOUR('',#416);
#416=COLOUR_RGB('',0.506983280181885,0.531564235687256,0.550000011920929);
#417=MANIFOLD_SOLID_BREP('',#408);
#418=SHAPE_DEFINITION_REPRESENTATION(#742,#419);
#419=SHAPE_REPRESENTATION('78201449321',(#420),#737);
#420=AXIS2_PLACEMENT_3D('',#621,#479,#480);
#421=AXIS2_PLACEMENT_3D('',#622,#481,#482);
#422=AXIS2_PLACEMENT_3D('',#631,#487,#488);
#423=AXIS2_PLACEMENT_3D('',#635,#490,#491);
#424=AXIS2_PLACEMENT_3D('',#636,#492,#493);
#425=AXIS2_PLACEMENT_3D('',#637,#494,#495);
#426=AXIS2_PLACEMENT_3D('',#643,#499,#500);
#427=AXIS2_PLACEMENT_3D('',#652,#505,#506);
#428=AXIS2_PLACEMENT_3D('',#653,#507,#508);
#429=AXIS2_PLACEMENT_3D('',#657,#510,#511);
#430=AXIS2_PLACEMENT_3D('',#658,#512,#513);
#431=AXIS2_PLACEMENT_3D('',#664,#517,#518);
#432=AXIS2_PLACEMENT_3D('',#665,#519,#520);
#433=AXIS2_PLACEMENT_3D('',#666,#521,#522);
#434=AXIS2_PLACEMENT_3D('',#667,#523,#524);
#435=AXIS2_PLACEMENT_3D('',#668,#525,#526);
#436=AXIS2_PLACEMENT_3D('',#669,#527,#528);
#437=AXIS2_PLACEMENT_3D('',#670,#529,#530);
#438=AXIS2_PLACEMENT_3D('',#671,#531,#532);
#439=AXIS2_PLACEMENT_3D('',#676,#534,#535);
#440=AXIS2_PLACEMENT_3D('',#679,#537,#538);
#441=AXIS2_PLACEMENT_3D('',#684,#540,#541);
#442=AXIS2_PLACEMENT_3D('',#687,#543,#544);
#443=AXIS2_PLACEMENT_3D('',#688,#545,#546);
#444=AXIS2_PLACEMENT_3D('',#693,#548,#549);
#445=AXIS2_PLACEMENT_3D('',#696,#551,#552);
#446=AXIS2_PLACEMENT_3D('',#701,#554,#555);
#447=AXIS2_PLACEMENT_3D('',#704,#557,#558);
#448=AXIS2_PLACEMENT_3D('',#705,#559,#560);
#449=AXIS2_PLACEMENT_3D('',#706,#561,#562);
#450=AXIS2_PLACEMENT_3D('',#707,#563,#564);
#451=AXIS2_PLACEMENT_3D('',#708,#565,#566);
#452=AXIS2_PLACEMENT_3D('',#709,#567,#568);
#453=AXIS2_PLACEMENT_3D('',#710,#569,#570);
#454=AXIS2_PLACEMENT_3D('',#711,#571,#572);
#455=AXIS2_PLACEMENT_3D('',#712,#573,#574);
#456=AXIS2_PLACEMENT_3D('',#713,#575,#576);
#457=AXIS2_PLACEMENT_3D('',#714,#577,#578);
#458=AXIS2_PLACEMENT_3D('',#715,#579,#580);
#459=AXIS2_PLACEMENT_3D('',#716,#581,#582);
#460=AXIS2_PLACEMENT_3D('',#717,#583,#584);
#461=AXIS2_PLACEMENT_3D('',#718,#585,#586);
#462=AXIS2_PLACEMENT_3D('',#719,#587,#588);
#463=AXIS2_PLACEMENT_3D('',#720,#589,#590);
#464=AXIS2_PLACEMENT_3D('',#721,#591,#592);
#465=AXIS2_PLACEMENT_3D('',#722,#593,#594);
#466=AXIS2_PLACEMENT_3D('',#723,#595,#596);
#467=AXIS2_PLACEMENT_3D('',#724,#597,#598);
#468=AXIS2_PLACEMENT_3D('',#725,#599,#600);
#469=AXIS2_PLACEMENT_3D('',#726,#601,#602);
#470=AXIS2_PLACEMENT_3D('',#727,#603,#604);
#471=AXIS2_PLACEMENT_3D('',#728,#605,#606);
#472=AXIS2_PLACEMENT_3D('',#729,#607,#608);
#473=AXIS2_PLACEMENT_3D('',#730,#609,#610);
#474=AXIS2_PLACEMENT_3D('',#731,#611,#612);
#475=AXIS2_PLACEMENT_3D('',#732,#613,#614);
#476=AXIS2_PLACEMENT_3D('',#733,#615,#616);
#477=AXIS2_PLACEMENT_3D('',#734,#617,#618);
#478=AXIS2_PLACEMENT_3D('',#735,#619,#620);
#479=DIRECTION('',(0.,0.,1.));
#480=DIRECTION('',(1.,0.,0.));
#481=DIRECTION('',(0.,0.,-1.));
#482=DIRECTION('',(-1.,0.,0.));
#483=DIRECTION('',(0.,1.,0.));
#484=DIRECTION('',(-1.,0.,0.));
#485=DIRECTION('',(0.,1.,0.));
#486=DIRECTION('',(-1.,0.,0.));
#487=DIRECTION('',(0.,1.,0.));
#488=DIRECTION('',(0.,0.,1.));
#489=DIRECTION('',(0.,1.,0.));
#490=DIRECTION('',(0.,1.,0.));
#491=DIRECTION('',(0.,0.,1.));
#492=DIRECTION('',(0.,1.,0.));
#493=DIRECTION('',(0.,0.,1.));
#494=DIRECTION('',(0.,0.,1.));
#495=DIRECTION('',(1.,0.,0.));
#496=DIRECTION('',(0.,1.,0.));
#497=DIRECTION('',(1.,0.,0.));
#498=DIRECTION('',(1.,0.,0.));
#499=DIRECTION('',(0.,0.,-1.));
#500=DIRECTION('',(-1.,0.,0.));
#501=DIRECTION('',(0.,1.,0.));
#502=DIRECTION('',(-1.,0.,0.));
#503=DIRECTION('',(0.,1.,0.));
#504=DIRECTION('',(-1.,0.,0.));
#505=DIRECTION('',(0.,1.,0.));
#506=DIRECTION('',(0.,0.,1.));
#507=DIRECTION('',(0.,1.,0.));
#508=DIRECTION('',(0.,0.,1.));
#509=DIRECTION('',(0.,1.,0.));
#510=DIRECTION('',(0.,1.,0.));
#511=DIRECTION('',(0.,0.,1.));
#512=DIRECTION('',(0.,0.,1.));
#513=DIRECTION('',(1.,0.,0.));
#514=DIRECTION('',(1.,0.,0.));
#515=DIRECTION('',(0.,1.,0.));
#516=DIRECTION('',(1.,0.,0.));
#517=DIRECTION('',(0.,1.,0.));
#518=DIRECTION('',(0.,0.,1.));
#519=DIRECTION('',(0.,1.,0.));
#520=DIRECTION('',(0.,0.,1.));
#521=DIRECTION('',(0.,1.,0.));
#522=DIRECTION('',(0.,0.,1.));
#523=DIRECTION('',(0.,1.,0.));
#524=DIRECTION('',(0.,0.,1.));
#525=DIRECTION('',(0.,1.,0.));
#526=DIRECTION('',(0.,0.,1.));
#527=DIRECTION('',(0.,1.,0.));
#528=DIRECTION('',(0.,0.,1.));
#529=DIRECTION('',(0.,1.,0.));
#530=DIRECTION('',(0.,0.,1.));
#531=DIRECTION('',(0.,1.,0.));
#532=DIRECTION('',(0.,0.,1.));
#533=DIRECTION('',(1.,0.,0.));
#534=DIRECTION('',(0.,1.,0.));
#535=DIRECTION('',(0.,0.,1.));
#536=DIRECTION('',(-1.,0.,0.));
#537=DIRECTION('',(0.,1.,0.));
#538=DIRECTION('',(0.,0.,1.));
#539=DIRECTION('',(-1.,0.,0.));
#540=DIRECTION('',(0.,1.,0.));
#541=DIRECTION('',(0.,0.,1.));
#542=DIRECTION('',(1.,0.,0.));
#543=DIRECTION('',(0.,1.,0.));
#544=DIRECTION('',(0.,0.,1.));
#545=DIRECTION('',(0.,1.,0.));
#546=DIRECTION('',(0.,0.,1.));
#547=DIRECTION('',(-1.,0.,0.));
#548=DIRECTION('',(0.,1.,0.));
#549=DIRECTION('',(0.,0.,1.));
#550=DIRECTION('',(1.,0.,0.));
#551=DIRECTION('',(0.,1.,0.));
#552=DIRECTION('',(0.,0.,1.));
#553=DIRECTION('',(1.,0.,0.));
#554=DIRECTION('',(0.,1.,0.));
#555=DIRECTION('',(0.,0.,1.));
#556=DIRECTION('',(-1.,0.,0.));
#557=DIRECTION('',(-1.,0.,0.));
#558=DIRECTION('',(0.,0.,1.));
#559=DIRECTION('',(-1.,0.,0.));
#560=DIRECTION('',(0.,0.,1.));
#561=DIRECTION('',(1.,0.,0.));
#562=DIRECTION('',(0.,0.,-1.));
#563=DIRECTION('',(0.,1.,0.));
#564=DIRECTION('',(0.,0.,1.));
#565=DIRECTION('',(-1.,0.,0.));
#566=DIRECTION('',(0.,0.,1.));
#567=DIRECTION('',(0.,1.,0.));
#568=DIRECTION('',(0.,0.,1.));
#569=DIRECTION('',(1.,0.,0.));
#570=DIRECTION('',(0.,0.,-1.));
#571=DIRECTION('',(1.,0.,0.));
#572=DIRECTION('',(0.,0.,-1.));
#573=DIRECTION('',(1.,0.,0.));
#574=DIRECTION('',(0.,0.,-1.));
#575=DIRECTION('',(1.,0.,0.));
#576=DIRECTION('',(0.,0.,-1.));
#577=DIRECTION('',(-1.,0.,0.));
#578=DIRECTION('',(0.,0.,1.));
#579=DIRECTION('',(0.,1.,0.));
#580=DIRECTION('',(0.,0.,1.));
#581=DIRECTION('',(1.,0.,0.));
#582=DIRECTION('',(0.,0.,-1.));
#583=DIRECTION('',(0.,1.,0.));
#584=DIRECTION('',(0.,0.,1.));
#585=DIRECTION('',(-1.,0.,0.));
#586=DIRECTION('',(0.,0.,1.));
#587=DIRECTION('',(-1.,0.,0.));
#588=DIRECTION('',(0.,0.,1.));
#589=DIRECTION('',(-1.,0.,0.));
#590=DIRECTION('',(0.,0.,1.));
#591=DIRECTION('',(1.,0.,0.));
#592=DIRECTION('',(0.,0.,-1.));
#593=DIRECTION('',(-1.,0.,0.));
#594=DIRECTION('',(0.,0.,1.));
#595=DIRECTION('',(0.,1.,0.));
#596=DIRECTION('',(0.,0.,1.));
#597=DIRECTION('',(1.,0.,0.));
#598=DIRECTION('',(0.,0.,-1.));
#599=DIRECTION('',(0.,1.,0.));
#600=DIRECTION('',(0.,0.,1.));
#601=DIRECTION('',(-1.,0.,0.));
#602=DIRECTION('',(0.,0.,1.));
#603=DIRECTION('',(1.,0.,0.));
#604=DIRECTION('',(0.,0.,-1.));
#605=DIRECTION('',(1.,0.,0.));
#606=DIRECTION('',(0.,0.,-1.));
#607=DIRECTION('',(-1.,0.,0.));
#608=DIRECTION('',(0.,0.,1.));
#609=DIRECTION('',(1.,0.,0.));
#610=DIRECTION('',(0.,0.,-1.));
#611=DIRECTION('',(0.,1.,0.));
#612=DIRECTION('',(0.,0.,1.));
#613=DIRECTION('',(-1.,0.,0.));
#614=DIRECTION('',(0.,0.,1.));
#615=DIRECTION('',(0.,1.,0.));
#616=DIRECTION('',(0.,0.,1.));
#617=DIRECTION('',(1.,0.,0.));
#618=DIRECTION('',(0.,0.,-1.));
#619=DIRECTION('',(-1.,0.,0.));
#620=DIRECTION('',(0.,0.,1.));
#621=CARTESIAN_POINT('',(0.,0.,0.));
#622=CARTESIAN_POINT('',(-8.55085928956656,-4.875,-16.));
#623=CARTESIAN_POINT('',(-8.55085928956655,-4.875,-16.));
#624=CARTESIAN_POINT('',(-8.55085928956655,-3.875,-16.));
#625=CARTESIAN_POINT('',(-8.55085928956655,3.875,-16.));
#626=CARTESIAN_POINT('',(-8.55085928956656,3.875,-16.));
#627=CARTESIAN_POINT('',(8.44914071043345,3.875,-16.));
#628=CARTESIAN_POINT('',(8.44914071043345,-4.875,-16.));
#629=CARTESIAN_POINT('',(8.44914071043345,-3.875,-16.));
#630=CARTESIAN_POINT('',(-8.55085928956655,-3.875,-16.));
#631=CARTESIAN_POINT('',(-8.55085928956655,-4.875,0.));
#632=CARTESIAN_POINT('',(-8.55085928956656,-4.875,16.));
#633=CARTESIAN_POINT('',(-8.55085928956656,-3.875,16.));
#634=CARTESIAN_POINT('',(-8.55085928956656,3.875,16.));
#635=CARTESIAN_POINT('',(-8.55085928956655,3.875,0.));
#636=CARTESIAN_POINT('',(-8.55085928956655,-3.875,0.));
#637=CARTESIAN_POINT('',(8.44914071043345,-4.875,16.));
#638=CARTESIAN_POINT('',(8.44914071043345,-4.875,16.));
#639=CARTESIAN_POINT('',(8.44914071043345,-3.875,16.));
#640=CARTESIAN_POINT('',(8.44914071043345,3.875,16.));
#641=CARTESIAN_POINT('',(8.44914071043345,3.875,16.));
#642=CARTESIAN_POINT('',(8.44914071043345,-3.875,16.));
#643=CARTESIAN_POINT('',(-8.55085928956655,-4.875,-9.25));
#644=CARTESIAN_POINT('',(-8.55085928956655,-4.875,-9.25));
#645=CARTESIAN_POINT('',(-8.55085928956655,-3.875,-9.25));
#646=CARTESIAN_POINT('',(-8.55085928956655,3.875,-9.25));
#647=CARTESIAN_POINT('',(-8.55085928956655,-3.875,-9.25));
#648=CARTESIAN_POINT('',(8.44914071043345,-3.875,-9.25));
#649=CARTESIAN_POINT('',(8.44914071043345,-4.875,-9.25));
#650=CARTESIAN_POINT('',(8.44914071043345,3.875,-9.25));
#651=CARTESIAN_POINT('',(-8.55085928956655,3.875,-9.25));
#652=CARTESIAN_POINT('',(8.44914071043345,-4.875,0.));
#653=CARTESIAN_POINT('',(8.44914071043345,-3.875,0.));
#654=CARTESIAN_POINT('',(8.44914071043345,-3.875,9.25));
#655=CARTESIAN_POINT('',(8.44914071043345,-4.875,9.25));
#656=CARTESIAN_POINT('',(8.44914071043345,3.875,9.25));
#657=CARTESIAN_POINT('',(8.44914071043345,3.875,0.));
#658=CARTESIAN_POINT('',(-8.55085928956655,-4.875,9.25));
#659=CARTESIAN_POINT('',(-8.55085928956655,-3.875,9.25));
#660=CARTESIAN_POINT('',(-8.55085928956655,-3.875,9.25));
#661=CARTESIAN_POINT('',(-8.55085928956655,-4.875,9.25));
#662=CARTESIAN_POINT('',(-8.55085928956655,3.875,9.25));
#663=CARTESIAN_POINT('',(8.44914071043345,3.875,9.25));
#664=CARTESIAN_POINT('',(-8.55085928956655,-4.875,0.));
#665=CARTESIAN_POINT('',(-8.55085928956655,-3.875,0.));
#666=CARTESIAN_POINT('',(-8.55085928956655,3.875,0.));
#667=CARTESIAN_POINT('',(8.44914071043345,-4.875,0.));
#668=CARTESIAN_POINT('',(8.44914071043345,3.875,0.));
#669=CARTESIAN_POINT('',(8.44914071043345,-3.875,0.));
#670=CARTESIAN_POINT('',(-8.55085928956655,-4.875,0.));
#671=CARTESIAN_POINT('',(-8.55085928956655,-4.875,0.));
#672=CARTESIAN_POINT('',(-8.55085928956655,-4.875,-10.25));
#673=CARTESIAN_POINT('',(-8.55085928956655,-4.875,10.25));
#674=CARTESIAN_POINT('',(-8.55085928956655,-4.875,10.25));
#675=CARTESIAN_POINT('',(8.44914071043345,-4.875,10.25));
#676=CARTESIAN_POINT('',(8.44914071043345,-4.875,0.));
#677=CARTESIAN_POINT('',(8.44914071043345,-4.875,-10.25));
#678=CARTESIAN_POINT('',(-8.55085928956655,-4.875,-10.25));
#679=CARTESIAN_POINT('',(-8.55085928956655,-4.875,0.));
#680=CARTESIAN_POINT('',(-8.55085928956656,-4.875,15.));
#681=CARTESIAN_POINT('',(-8.55085928956655,-4.875,-15.));
#682=CARTESIAN_POINT('',(8.44914071043345,-4.875,-15.));
#683=CARTESIAN_POINT('',(8.44914071043345,-4.875,-15.));
#684=CARTESIAN_POINT('',(8.44914071043345,-4.875,0.));
#685=CARTESIAN_POINT('',(8.44914071043345,-4.875,15.));
#686=CARTESIAN_POINT('',(-8.55085928956655,-4.875,15.));
#687=CARTESIAN_POINT('',(-8.55085928956655,4.875,0.));
#688=CARTESIAN_POINT('',(8.44914071043345,4.875,0.));
#689=CARTESIAN_POINT('',(8.44914071043345,4.875,15.));
#690=CARTESIAN_POINT('',(8.44914071043345,4.875,-15.));
#691=CARTESIAN_POINT('',(-8.55085928956655,4.875,-15.));
#692=CARTESIAN_POINT('',(-8.55085928956655,4.875,-15.));
#693=CARTESIAN_POINT('',(-8.55085928956655,4.875,0.));
#694=CARTESIAN_POINT('',(-8.55085928956656,4.875,15.));
#695=CARTESIAN_POINT('',(-8.55085928956655,4.875,15.));
#696=CARTESIAN_POINT('',(8.44914071043345,4.875,0.));
#697=CARTESIAN_POINT('',(8.44914071043345,4.875,-10.25));
#698=CARTESIAN_POINT('',(8.44914071043345,4.875,10.25));
#699=CARTESIAN_POINT('',(-8.55085928956655,4.875,10.25));
#700=CARTESIAN_POINT('',(-8.55085928956655,4.875,10.25));
#701=CARTESIAN_POINT('',(-8.55085928956655,4.875,0.));
#702=CARTESIAN_POINT('',(-8.55085928956655,4.875,-10.25));
#703=CARTESIAN_POINT('',(8.44914071043345,4.875,-10.25));
#704=CARTESIAN_POINT('',(8.44914071043345,-3.875,15.));
#705=CARTESIAN_POINT('',(-8.55085928956656,-3.875,15.));
#706=CARTESIAN_POINT('',(8.44914071043345,-3.875,15.));
#707=CARTESIAN_POINT('',(8.44914071043345,-3.875,0.));
#708=CARTESIAN_POINT('',(8.44914071043345,-3.875,-15.));
#709=CARTESIAN_POINT('',(-8.55085928956655,-3.875,0.));
#710=CARTESIAN_POINT('',(-8.55085928956655,-3.875,-15.));
#711=CARTESIAN_POINT('',(-8.55085928956656,-3.875,-15.));
#712=CARTESIAN_POINT('',(-8.55085928956655,3.875,-10.25));
#713=CARTESIAN_POINT('',(8.44914071043345,3.875,-10.25));
#714=CARTESIAN_POINT('',(-8.55085928956655,3.875,-10.25));
#715=CARTESIAN_POINT('',(-8.55085928956655,3.875,0.));
#716=CARTESIAN_POINT('',(-8.55085928956655,3.875,10.25));
#717=CARTESIAN_POINT('',(8.44914071043345,3.875,0.));
#718=CARTESIAN_POINT('',(8.44914071043345,3.875,10.25));
#719=CARTESIAN_POINT('',(-8.55085928956655,3.875,10.25));
#720=CARTESIAN_POINT('',(-8.55085928956655,-3.875,-10.25));
#721=CARTESIAN_POINT('',(8.44914071043345,-3.875,-10.25));
#722=CARTESIAN_POINT('',(-8.55085928956655,-3.875,-10.25));
#723=CARTESIAN_POINT('',(-8.55085928956655,-3.875,0.));
#724=CARTESIAN_POINT('',(-8.55085928956655,-3.875,10.25));
#725=CARTESIAN_POINT('',(8.44914071043345,-3.875,0.));
#726=CARTESIAN_POINT('',(8.44914071043345,-3.875,10.25));
#727=CARTESIAN_POINT('',(-8.55085928956655,-3.875,10.25));
#728=CARTESIAN_POINT('',(-8.55085928956655,3.875,15.));
#729=CARTESIAN_POINT('',(-8.55085928956656,3.875,15.));
#730=CARTESIAN_POINT('',(8.44914071043345,3.875,15.));
#731=CARTESIAN_POINT('',(8.44914071043345,3.875,0.));
#732=CARTESIAN_POINT('',(8.44914071043345,3.875,-15.));
#733=CARTESIAN_POINT('',(-8.55085928956655,3.875,0.));
#734=CARTESIAN_POINT('',(-8.55085928956655,3.875,-15.));
#735=CARTESIAN_POINT('',(-8.55085928956655,3.875,-15.));
#736=MECHANICAL_DESIGN_GEOMETRIC_PRESENTATION_REPRESENTATION('',(#409),
#737);
#737=(
GEOMETRIC_REPRESENTATION_CONTEXT(3)
GLOBAL_UNCERTAINTY_ASSIGNED_CONTEXT((#738))
GLOBAL_UNIT_ASSIGNED_CONTEXT((#741,#740,#739))
REPRESENTATION_CONTEXT('78201449321','TOP_LEVEL_ASSEMBLY_PART')
);
#738=UNCERTAINTY_MEASURE_WITH_UNIT(LENGTH_MEASURE(0.005),#741,
'DISTANCE_ACCURACY_VALUE','Maximum Tolerance applied to model');
#739=(
NAMED_UNIT(*)
SI_UNIT($,.STERADIAN.)
SOLID_ANGLE_UNIT()
);
#740=(
NAMED_UNIT(*)
PLANE_ANGLE_UNIT()
SI_UNIT($,.RADIAN.)
);
#741=(
LENGTH_UNIT()
NAMED_UNIT(*)
SI_UNIT(.MILLI.,.METRE.)
);
#742=PRODUCT_DEFINITION_SHAPE('','',#743);
#743=PRODUCT_DEFINITION('','',#745,#744);
#744=PRODUCT_DEFINITION_CONTEXT('',#751,'design');
#745=PRODUCT_DEFINITION_FORMATION_WITH_SPECIFIED_SOURCE('','',#747,
 .NOT_KNOWN.);
#746=PRODUCT_RELATED_PRODUCT_CATEGORY('','',(#747));
#747=PRODUCT('78201449321','78201449321','78201449321',(#749));
#748=PRODUCT_CATEGORY('','');
#749=PRODUCT_CONTEXT('',#751,'mechanical');
#750=APPLICATION_PROTOCOL_DEFINITION('international standard',
'automotive_design',2010,#751);
#751=APPLICATION_CONTEXT(
'core data for automotive mechanical design processes');
ENDSEC;
END-ISO-10303-21;
