ISO-10303-21;
HEADER;
/* Generated by software containing ST-Developer
 * from STEP Tools, Inc. (www.steptools.com) 
 */
/* OPTION: strings as raw bytes, not using required /X/ escapes */

FILE_DESCRIPTION(
/* description */ ('Unknown'),
/* implementation_level */ '2;1');

FILE_NAME(
/* name */ 'WE-GFH 2520',
/* time_stamp */ '2025-04-03T09:58:00+02:00',
/* author */ ('Unknown'),
/* organization */ ('Unknown'),
/* preprocessor_version */ 'ST-DEVELOPER v19.4',
/* originating_system */ 'Solid Edge',
/* authorisation */ 'Unknown');

FILE_SCHEMA (('AUTOMOTIVE_DESIGN {1 0 10303 214 3 1 1}'));
ENDSEC;

DATA;
#10=PROPERTY_DEFINITION_REPRESENTATION(#14,#12);
#11=PROPERTY_DEFINITION_REPRESENTATION(#15,#13);
#12=REPRESENTATION('',(#16),#701);
#13=REPRESENTATION('',(#17),#701);
#14=PROPERTY_DEFINITION('pmi validation property','',#706);
#15=PROPERTY_DEFINITION('pmi validation property','',#706);
#16=VALUE_REPRESENTATION_ITEM('number of annotations',COUNT_MEASURE(0.));
#17=VALUE_REPRESENTATION_ITEM('number of views',COUNT_MEASURE(0.));
#18=SHAPE_REPRESENTATION_RELATIONSHIP('','',#495,#19);
#19=ADVANCED_BREP_SHAPE_REPRESENTATION('',(#493),#701);
#20=ORIENTED_EDGE('',*,*,#116,.T.);
#21=ORIENTED_EDGE('',*,*,#117,.T.);
#22=ORIENTED_EDGE('',*,*,#118,.F.);
#23=ORIENTED_EDGE('',*,*,#119,.F.);
#24=ORIENTED_EDGE('',*,*,#120,.F.);
#25=ORIENTED_EDGE('',*,*,#121,.T.);
#26=ORIENTED_EDGE('',*,*,#122,.T.);
#27=ORIENTED_EDGE('',*,*,#123,.F.);
#28=ORIENTED_EDGE('',*,*,#124,.F.);
#29=ORIENTED_EDGE('',*,*,#125,.T.);
#30=ORIENTED_EDGE('',*,*,#126,.T.);
#31=ORIENTED_EDGE('',*,*,#127,.F.);
#32=ORIENTED_EDGE('',*,*,#128,.T.);
#33=ORIENTED_EDGE('',*,*,#127,.T.);
#34=ORIENTED_EDGE('',*,*,#129,.T.);
#35=ORIENTED_EDGE('',*,*,#130,.F.);
#36=ORIENTED_EDGE('',*,*,#131,.F.);
#37=ORIENTED_EDGE('',*,*,#119,.T.);
#38=ORIENTED_EDGE('',*,*,#132,.F.);
#39=ORIENTED_EDGE('',*,*,#133,.F.);
#40=ORIENTED_EDGE('',*,*,#125,.F.);
#41=ORIENTED_EDGE('',*,*,#134,.F.);
#42=ORIENTED_EDGE('',*,*,#135,.T.);
#43=ORIENTED_EDGE('',*,*,#136,.T.);
#44=ORIENTED_EDGE('',*,*,#121,.F.);
#45=ORIENTED_EDGE('',*,*,#137,.F.);
#46=ORIENTED_EDGE('',*,*,#138,.T.);
#47=ORIENTED_EDGE('',*,*,#139,.T.);
#48=ORIENTED_EDGE('',*,*,#140,.T.);
#49=ORIENTED_EDGE('',*,*,#138,.F.);
#50=ORIENTED_EDGE('',*,*,#141,.F.);
#51=ORIENTED_EDGE('',*,*,#130,.T.);
#52=ORIENTED_EDGE('',*,*,#137,.T.);
#53=ORIENTED_EDGE('',*,*,#120,.T.);
#54=ORIENTED_EDGE('',*,*,#131,.T.);
#55=ORIENTED_EDGE('',*,*,#141,.T.);
#56=ORIENTED_EDGE('',*,*,#139,.F.);
#57=ORIENTED_EDGE('',*,*,#140,.F.);
#58=ORIENTED_EDGE('',*,*,#129,.F.);
#59=ORIENTED_EDGE('',*,*,#126,.F.);
#60=ORIENTED_EDGE('',*,*,#142,.T.);
#61=ORIENTED_EDGE('',*,*,#135,.F.);
#62=ORIENTED_EDGE('',*,*,#143,.F.);
#63=ORIENTED_EDGE('',*,*,#144,.T.);
#64=ORIENTED_EDGE('',*,*,#145,.T.);
#65=ORIENTED_EDGE('',*,*,#146,.F.);
#66=ORIENTED_EDGE('',*,*,#147,.F.);
#67=ORIENTED_EDGE('',*,*,#123,.T.);
#68=ORIENTED_EDGE('',*,*,#148,.T.);
#69=ORIENTED_EDGE('',*,*,#149,.F.);
#70=ORIENTED_EDGE('',*,*,#150,.F.);
#71=ORIENTED_EDGE('',*,*,#146,.T.);
#72=ORIENTED_EDGE('',*,*,#151,.T.);
#73=ORIENTED_EDGE('',*,*,#144,.F.);
#74=ORIENTED_EDGE('',*,*,#152,.F.);
#75=ORIENTED_EDGE('',*,*,#149,.T.);
#76=ORIENTED_EDGE('',*,*,#143,.T.);
#77=ORIENTED_EDGE('',*,*,#134,.T.);
#78=ORIENTED_EDGE('',*,*,#124,.T.);
#79=ORIENTED_EDGE('',*,*,#147,.T.);
#80=ORIENTED_EDGE('',*,*,#150,.T.);
#81=ORIENTED_EDGE('',*,*,#152,.T.);
#82=ORIENTED_EDGE('',*,*,#142,.F.);
#83=ORIENTED_EDGE('',*,*,#151,.F.);
#84=ORIENTED_EDGE('',*,*,#148,.F.);
#85=ORIENTED_EDGE('',*,*,#145,.F.);
#86=ORIENTED_EDGE('',*,*,#122,.F.);
#87=ORIENTED_EDGE('',*,*,#136,.F.);
#88=ORIENTED_EDGE('',*,*,#153,.F.);
#89=ORIENTED_EDGE('',*,*,#154,.F.);
#90=ORIENTED_EDGE('',*,*,#155,.T.);
#91=ORIENTED_EDGE('',*,*,#133,.T.);
#92=ORIENTED_EDGE('',*,*,#156,.F.);
#93=ORIENTED_EDGE('',*,*,#117,.F.);
#94=ORIENTED_EDGE('',*,*,#157,.T.);
#95=ORIENTED_EDGE('',*,*,#158,.T.);
#96=ORIENTED_EDGE('',*,*,#159,.F.);
#97=ORIENTED_EDGE('',*,*,#158,.F.);
#98=ORIENTED_EDGE('',*,*,#160,.T.);
#99=ORIENTED_EDGE('',*,*,#161,.T.);
#100=ORIENTED_EDGE('',*,*,#162,.F.);
#101=ORIENTED_EDGE('',*,*,#161,.F.);
#102=ORIENTED_EDGE('',*,*,#163,.T.);
#103=ORIENTED_EDGE('',*,*,#154,.T.);
#104=ORIENTED_EDGE('',*,*,#155,.F.);
#105=ORIENTED_EDGE('',*,*,#163,.F.);
#106=ORIENTED_EDGE('',*,*,#160,.F.);
#107=ORIENTED_EDGE('',*,*,#157,.F.);
#108=ORIENTED_EDGE('',*,*,#116,.F.);
#109=ORIENTED_EDGE('',*,*,#128,.F.);
#110=ORIENTED_EDGE('',*,*,#153,.T.);
#111=ORIENTED_EDGE('',*,*,#132,.T.);
#112=ORIENTED_EDGE('',*,*,#118,.T.);
#113=ORIENTED_EDGE('',*,*,#156,.T.);
#114=ORIENTED_EDGE('',*,*,#159,.T.);
#115=ORIENTED_EDGE('',*,*,#162,.T.);
#116=EDGE_CURVE('',#164,#165,#196,.T.);
#117=EDGE_CURVE('',#165,#166,#197,.T.);
#118=EDGE_CURVE('',#167,#166,#198,.T.);
#119=EDGE_CURVE('',#168,#167,#199,.T.);
#120=EDGE_CURVE('',#169,#168,#200,.T.);
#121=EDGE_CURVE('',#169,#170,#201,.T.);
#122=EDGE_CURVE('',#170,#171,#202,.T.);
#123=EDGE_CURVE('',#172,#171,#203,.T.);
#124=EDGE_CURVE('',#173,#172,#204,.T.);
#125=EDGE_CURVE('',#173,#174,#205,.T.);
#126=EDGE_CURVE('',#174,#175,#206,.T.);
#127=EDGE_CURVE('',#164,#175,#207,.T.);
#128=EDGE_CURVE('',#176,#164,#208,.T.);
#129=EDGE_CURVE('',#175,#177,#209,.T.);
#130=EDGE_CURVE('',#178,#177,#210,.T.);
#131=EDGE_CURVE('',#168,#178,#211,.T.);
#132=EDGE_CURVE('',#179,#167,#212,.T.);
#133=EDGE_CURVE('',#176,#179,#213,.T.);
#134=EDGE_CURVE('',#180,#173,#214,.T.);
#135=EDGE_CURVE('',#180,#181,#215,.T.);
#136=EDGE_CURVE('',#181,#170,#216,.T.);
#137=EDGE_CURVE('',#182,#169,#217,.T.);
#138=EDGE_CURVE('',#182,#183,#218,.T.);
#139=EDGE_CURVE('',#183,#174,#219,.T.);
#140=EDGE_CURVE('',#177,#183,#220,.T.);
#141=EDGE_CURVE('',#178,#182,#221,.T.);
#142=EDGE_CURVE('',#184,#181,#222,.T.);
#143=EDGE_CURVE('',#185,#180,#223,.T.);
#144=EDGE_CURVE('',#185,#184,#224,.T.);
#145=EDGE_CURVE('',#171,#186,#225,.T.);
#146=EDGE_CURVE('',#187,#186,#226,.T.);
#147=EDGE_CURVE('',#172,#187,#227,.T.);
#148=EDGE_CURVE('',#186,#188,#228,.T.);
#149=EDGE_CURVE('',#189,#188,#229,.T.);
#150=EDGE_CURVE('',#187,#189,#230,.T.);
#151=EDGE_CURVE('',#188,#184,#231,.T.);
#152=EDGE_CURVE('',#189,#185,#232,.T.);
#153=EDGE_CURVE('',#190,#179,#233,.T.);
#154=EDGE_CURVE('',#191,#190,#234,.T.);
#155=EDGE_CURVE('',#191,#176,#235,.T.);
#156=EDGE_CURVE('',#166,#192,#236,.T.);
#157=EDGE_CURVE('',#165,#193,#237,.T.);
#158=EDGE_CURVE('',#193,#192,#238,.T.);
#159=EDGE_CURVE('',#192,#194,#239,.T.);
#160=EDGE_CURVE('',#193,#195,#240,.T.);
#161=EDGE_CURVE('',#195,#194,#241,.T.);
#162=EDGE_CURVE('',#194,#190,#242,.T.);
#163=EDGE_CURVE('',#195,#191,#243,.T.);
#164=VERTEX_POINT('',#604);
#165=VERTEX_POINT('',#605);
#166=VERTEX_POINT('',#607);
#167=VERTEX_POINT('',#609);
#168=VERTEX_POINT('',#611);
#169=VERTEX_POINT('',#613);
#170=VERTEX_POINT('',#615);
#171=VERTEX_POINT('',#617);
#172=VERTEX_POINT('',#619);
#173=VERTEX_POINT('',#621);
#174=VERTEX_POINT('',#623);
#175=VERTEX_POINT('',#625);
#176=VERTEX_POINT('',#629);
#177=VERTEX_POINT('',#631);
#178=VERTEX_POINT('',#633);
#179=VERTEX_POINT('',#636);
#180=VERTEX_POINT('',#640);
#181=VERTEX_POINT('',#642);
#182=VERTEX_POINT('',#645);
#183=VERTEX_POINT('',#647);
#184=VERTEX_POINT('',#656);
#185=VERTEX_POINT('',#658);
#186=VERTEX_POINT('',#662);
#187=VERTEX_POINT('',#664);
#188=VERTEX_POINT('',#668);
#189=VERTEX_POINT('',#670);
#190=VERTEX_POINT('',#679);
#191=VERTEX_POINT('',#681);
#192=VERTEX_POINT('',#685);
#193=VERTEX_POINT('',#687);
#194=VERTEX_POINT('',#691);
#195=VERTEX_POINT('',#693);
#196=LINE('',#603,#244);
#197=LINE('',#606,#245);
#198=LINE('',#608,#246);
#199=LINE('',#610,#247);
#200=LINE('',#612,#248);
#201=LINE('',#614,#249);
#202=LINE('',#616,#250);
#203=LINE('',#618,#251);
#204=LINE('',#620,#252);
#205=LINE('',#622,#253);
#206=LINE('',#624,#254);
#207=LINE('',#626,#255);
#208=LINE('',#628,#256);
#209=LINE('',#630,#257);
#210=LINE('',#632,#258);
#211=LINE('',#634,#259);
#212=LINE('',#635,#260);
#213=LINE('',#637,#261);
#214=LINE('',#639,#262);
#215=LINE('',#641,#263);
#216=LINE('',#643,#264);
#217=LINE('',#644,#265);
#218=LINE('',#646,#266);
#219=LINE('',#648,#267);
#220=LINE('',#650,#268);
#221=LINE('',#651,#269);
#222=LINE('',#655,#270);
#223=LINE('',#657,#271);
#224=LINE('',#659,#272);
#225=LINE('',#661,#273);
#226=LINE('',#663,#274);
#227=LINE('',#665,#275);
#228=LINE('',#667,#276);
#229=LINE('',#669,#277);
#230=LINE('',#671,#278);
#231=LINE('',#673,#279);
#232=LINE('',#674,#280);
#233=LINE('',#678,#281);
#234=LINE('',#680,#282);
#235=LINE('',#682,#283);
#236=LINE('',#684,#284);
#237=LINE('',#686,#285);
#238=LINE('',#688,#286);
#239=LINE('',#690,#287);
#240=LINE('',#692,#288);
#241=LINE('',#694,#289);
#242=LINE('',#696,#290);
#243=LINE('',#697,#291);
#244=VECTOR('',#519,1000.);
#245=VECTOR('',#520,1000.);
#246=VECTOR('',#521,1000.);
#247=VECTOR('',#522,1000.);
#248=VECTOR('',#523,1000.);
#249=VECTOR('',#524,1000.);
#250=VECTOR('',#525,1000.);
#251=VECTOR('',#526,1000.);
#252=VECTOR('',#527,1000.);
#253=VECTOR('',#528,1000.);
#254=VECTOR('',#529,1000.);
#255=VECTOR('',#530,1000.);
#256=VECTOR('',#533,1000.);
#257=VECTOR('',#534,1000.);
#258=VECTOR('',#535,1000.);
#259=VECTOR('',#536,1000.);
#260=VECTOR('',#537,1000.);
#261=VECTOR('',#538,1000.);
#262=VECTOR('',#541,1000.);
#263=VECTOR('',#542,1000.);
#264=VECTOR('',#543,1000.);
#265=VECTOR('',#544,1000.);
#266=VECTOR('',#545,1000.);
#267=VECTOR('',#546,1000.);
#268=VECTOR('',#549,1000.);
#269=VECTOR('',#550,1000.);
#270=VECTOR('',#557,1000.);
#271=VECTOR('',#558,1000.);
#272=VECTOR('',#559,1000.);
#273=VECTOR('',#562,1000.);
#274=VECTOR('',#563,1000.);
#275=VECTOR('',#564,1000.);
#276=VECTOR('',#567,1000.);
#277=VECTOR('',#568,1000.);
#278=VECTOR('',#569,1000.);
#279=VECTOR('',#572,1000.);
#280=VECTOR('',#573,1000.);
#281=VECTOR('',#580,1000.);
#282=VECTOR('',#581,1000.);
#283=VECTOR('',#582,1000.);
#284=VECTOR('',#585,1000.);
#285=VECTOR('',#586,1000.);
#286=VECTOR('',#587,1000.);
#287=VECTOR('',#590,1000.);
#288=VECTOR('',#591,1000.);
#289=VECTOR('',#592,1000.);
#290=VECTOR('',#595,1000.);
#291=VECTOR('',#596,1000.);
#292=EDGE_LOOP('',(#20,#21,#22,#23,#24,#25,#26,#27,#28,#29,#30,#31));
#293=EDGE_LOOP('',(#32,#33,#34,#35,#36,#37,#38,#39));
#294=EDGE_LOOP('',(#40,#41,#42,#43,#44,#45,#46,#47));
#295=EDGE_LOOP('',(#48,#49,#50,#51));
#296=EDGE_LOOP('',(#52,#53,#54,#55));
#297=EDGE_LOOP('',(#56,#57,#58,#59));
#298=EDGE_LOOP('',(#60,#61,#62,#63));
#299=EDGE_LOOP('',(#64,#65,#66,#67));
#300=EDGE_LOOP('',(#68,#69,#70,#71));
#301=EDGE_LOOP('',(#72,#73,#74,#75));
#302=EDGE_LOOP('',(#76,#77,#78,#79,#80,#81));
#303=EDGE_LOOP('',(#82,#83,#84,#85,#86,#87));
#304=EDGE_LOOP('',(#88,#89,#90,#91));
#305=EDGE_LOOP('',(#92,#93,#94,#95));
#306=EDGE_LOOP('',(#96,#97,#98,#99));
#307=EDGE_LOOP('',(#100,#101,#102,#103));
#308=EDGE_LOOP('',(#104,#105,#106,#107,#108,#109));
#309=EDGE_LOOP('',(#110,#111,#112,#113,#114,#115));
#310=FACE_BOUND('',#292,.T.);
#311=FACE_BOUND('',#293,.T.);
#312=FACE_BOUND('',#294,.T.);
#313=FACE_BOUND('',#295,.T.);
#314=FACE_BOUND('',#296,.T.);
#315=FACE_BOUND('',#297,.T.);
#316=FACE_BOUND('',#298,.T.);
#317=FACE_BOUND('',#299,.T.);
#318=FACE_BOUND('',#300,.T.);
#319=FACE_BOUND('',#301,.T.);
#320=FACE_BOUND('',#302,.T.);
#321=FACE_BOUND('',#303,.T.);
#322=FACE_BOUND('',#304,.T.);
#323=FACE_BOUND('',#305,.T.);
#324=FACE_BOUND('',#306,.T.);
#325=FACE_BOUND('',#307,.T.);
#326=FACE_BOUND('',#308,.T.);
#327=FACE_BOUND('',#309,.T.);
#328=PLANE('',#497);
#329=PLANE('',#498);
#330=PLANE('',#499);
#331=PLANE('',#500);
#332=PLANE('',#501);
#333=PLANE('',#502);
#334=PLANE('',#503);
#335=PLANE('',#504);
#336=PLANE('',#505);
#337=PLANE('',#506);
#338=PLANE('',#507);
#339=PLANE('',#508);
#340=PLANE('',#509);
#341=PLANE('',#510);
#342=PLANE('',#511);
#343=PLANE('',#512);
#344=PLANE('',#513);
#345=PLANE('',#514);
#346=STYLED_ITEM('',(#364),#474);
#347=STYLED_ITEM('',(#365),#475);
#348=STYLED_ITEM('',(#366),#476);
#349=STYLED_ITEM('',(#367),#477);
#350=STYLED_ITEM('',(#368),#478);
#351=STYLED_ITEM('',(#369),#479);
#352=STYLED_ITEM('',(#370),#480);
#353=STYLED_ITEM('',(#371),#481);
#354=STYLED_ITEM('',(#372),#482);
#355=STYLED_ITEM('',(#373),#483);
#356=STYLED_ITEM('',(#374),#484);
#357=STYLED_ITEM('',(#375),#485);
#358=STYLED_ITEM('',(#376),#486);
#359=STYLED_ITEM('',(#377),#487);
#360=STYLED_ITEM('',(#378),#488);
#361=STYLED_ITEM('',(#379),#489);
#362=STYLED_ITEM('',(#380),#490);
#363=STYLED_ITEM('',(#381),#491);
#364=PRESENTATION_STYLE_ASSIGNMENT((#382));
#365=PRESENTATION_STYLE_ASSIGNMENT((#383));
#366=PRESENTATION_STYLE_ASSIGNMENT((#384));
#367=PRESENTATION_STYLE_ASSIGNMENT((#385));
#368=PRESENTATION_STYLE_ASSIGNMENT((#386));
#369=PRESENTATION_STYLE_ASSIGNMENT((#387));
#370=PRESENTATION_STYLE_ASSIGNMENT((#388));
#371=PRESENTATION_STYLE_ASSIGNMENT((#389));
#372=PRESENTATION_STYLE_ASSIGNMENT((#390));
#373=PRESENTATION_STYLE_ASSIGNMENT((#391));
#374=PRESENTATION_STYLE_ASSIGNMENT((#392));
#375=PRESENTATION_STYLE_ASSIGNMENT((#393));
#376=PRESENTATION_STYLE_ASSIGNMENT((#394));
#377=PRESENTATION_STYLE_ASSIGNMENT((#395));
#378=PRESENTATION_STYLE_ASSIGNMENT((#396));
#379=PRESENTATION_STYLE_ASSIGNMENT((#397));
#380=PRESENTATION_STYLE_ASSIGNMENT((#398));
#381=PRESENTATION_STYLE_ASSIGNMENT((#399));
#382=SURFACE_STYLE_USAGE(.BOTH.,#400);
#383=SURFACE_STYLE_USAGE(.BOTH.,#401);
#384=SURFACE_STYLE_USAGE(.BOTH.,#402);
#385=SURFACE_STYLE_USAGE(.BOTH.,#403);
#386=SURFACE_STYLE_USAGE(.BOTH.,#404);
#387=SURFACE_STYLE_USAGE(.BOTH.,#405);
#388=SURFACE_STYLE_USAGE(.BOTH.,#406);
#389=SURFACE_STYLE_USAGE(.BOTH.,#407);
#390=SURFACE_STYLE_USAGE(.BOTH.,#408);
#391=SURFACE_STYLE_USAGE(.BOTH.,#409);
#392=SURFACE_STYLE_USAGE(.BOTH.,#410);
#393=SURFACE_STYLE_USAGE(.BOTH.,#411);
#394=SURFACE_STYLE_USAGE(.BOTH.,#412);
#395=SURFACE_STYLE_USAGE(.BOTH.,#413);
#396=SURFACE_STYLE_USAGE(.BOTH.,#414);
#397=SURFACE_STYLE_USAGE(.BOTH.,#415);
#398=SURFACE_STYLE_USAGE(.BOTH.,#416);
#399=SURFACE_STYLE_USAGE(.BOTH.,#417);
#400=SURFACE_SIDE_STYLE('',(#418));
#401=SURFACE_SIDE_STYLE('',(#419));
#402=SURFACE_SIDE_STYLE('',(#420));
#403=SURFACE_SIDE_STYLE('',(#421));
#404=SURFACE_SIDE_STYLE('',(#422));
#405=SURFACE_SIDE_STYLE('',(#423));
#406=SURFACE_SIDE_STYLE('',(#424));
#407=SURFACE_SIDE_STYLE('',(#425));
#408=SURFACE_SIDE_STYLE('',(#426));
#409=SURFACE_SIDE_STYLE('',(#427));
#410=SURFACE_SIDE_STYLE('',(#428));
#411=SURFACE_SIDE_STYLE('',(#429));
#412=SURFACE_SIDE_STYLE('',(#430));
#413=SURFACE_SIDE_STYLE('',(#431));
#414=SURFACE_SIDE_STYLE('',(#432));
#415=SURFACE_SIDE_STYLE('',(#433));
#416=SURFACE_SIDE_STYLE('',(#434));
#417=SURFACE_SIDE_STYLE('',(#435));
#418=SURFACE_STYLE_FILL_AREA(#436);
#419=SURFACE_STYLE_FILL_AREA(#437);
#420=SURFACE_STYLE_FILL_AREA(#438);
#421=SURFACE_STYLE_FILL_AREA(#439);
#422=SURFACE_STYLE_FILL_AREA(#440);
#423=SURFACE_STYLE_FILL_AREA(#441);
#424=SURFACE_STYLE_FILL_AREA(#442);
#425=SURFACE_STYLE_FILL_AREA(#443);
#426=SURFACE_STYLE_FILL_AREA(#444);
#427=SURFACE_STYLE_FILL_AREA(#445);
#428=SURFACE_STYLE_FILL_AREA(#446);
#429=SURFACE_STYLE_FILL_AREA(#447);
#430=SURFACE_STYLE_FILL_AREA(#448);
#431=SURFACE_STYLE_FILL_AREA(#449);
#432=SURFACE_STYLE_FILL_AREA(#450);
#433=SURFACE_STYLE_FILL_AREA(#451);
#434=SURFACE_STYLE_FILL_AREA(#452);
#435=SURFACE_STYLE_FILL_AREA(#453);
#436=FILL_AREA_STYLE('',(#454));
#437=FILL_AREA_STYLE('',(#455));
#438=FILL_AREA_STYLE('',(#456));
#439=FILL_AREA_STYLE('',(#457));
#440=FILL_AREA_STYLE('',(#458));
#441=FILL_AREA_STYLE('',(#459));
#442=FILL_AREA_STYLE('',(#460));
#443=FILL_AREA_STYLE('',(#461));
#444=FILL_AREA_STYLE('',(#462));
#445=FILL_AREA_STYLE('',(#463));
#446=FILL_AREA_STYLE('',(#464));
#447=FILL_AREA_STYLE('',(#465));
#448=FILL_AREA_STYLE('',(#466));
#449=FILL_AREA_STYLE('',(#467));
#450=FILL_AREA_STYLE('',(#468));
#451=FILL_AREA_STYLE('',(#469));
#452=FILL_AREA_STYLE('',(#470));
#453=FILL_AREA_STYLE('',(#471));
#454=FILL_AREA_STYLE_COLOUR('',#472);
#455=FILL_AREA_STYLE_COLOUR('',#472);
#456=FILL_AREA_STYLE_COLOUR('',#472);
#457=FILL_AREA_STYLE_COLOUR('',#472);
#458=FILL_AREA_STYLE_COLOUR('',#472);
#459=FILL_AREA_STYLE_COLOUR('',#472);
#460=FILL_AREA_STYLE_COLOUR('',#473);
#461=FILL_AREA_STYLE_COLOUR('',#473);
#462=FILL_AREA_STYLE_COLOUR('',#473);
#463=FILL_AREA_STYLE_COLOUR('',#473);
#464=FILL_AREA_STYLE_COLOUR('',#473);
#465=FILL_AREA_STYLE_COLOUR('',#473);
#466=FILL_AREA_STYLE_COLOUR('',#473);
#467=FILL_AREA_STYLE_COLOUR('',#473);
#468=FILL_AREA_STYLE_COLOUR('',#473);
#469=FILL_AREA_STYLE_COLOUR('',#473);
#470=FILL_AREA_STYLE_COLOUR('',#473);
#471=FILL_AREA_STYLE_COLOUR('',#473);
#472=COLOUR_RGB('',0.119999997317791,0.119999997317791,0.119999997317791);
#473=COLOUR_RGB('',0.699999988079071,0.699999988079071,0.699999988079071);
#474=ADVANCED_FACE('',(#310),#328,.F.);
#475=ADVANCED_FACE('',(#311),#329,.F.);
#476=ADVANCED_FACE('',(#312),#330,.F.);
#477=ADVANCED_FACE('',(#313),#331,.F.);
#478=ADVANCED_FACE('',(#314),#332,.T.);
#479=ADVANCED_FACE('',(#315),#333,.F.);
#480=ADVANCED_FACE('',(#316),#334,.F.);
#481=ADVANCED_FACE('',(#317),#335,.F.);
#482=ADVANCED_FACE('',(#318),#336,.F.);
#483=ADVANCED_FACE('',(#319),#337,.F.);
#484=ADVANCED_FACE('',(#320),#338,.T.);
#485=ADVANCED_FACE('',(#321),#339,.F.);
#486=ADVANCED_FACE('',(#322),#340,.T.);
#487=ADVANCED_FACE('',(#323),#341,.T.);
#488=ADVANCED_FACE('',(#324),#342,.T.);
#489=ADVANCED_FACE('',(#325),#343,.T.);
#490=ADVANCED_FACE('',(#326),#344,.F.);
#491=ADVANCED_FACE('',(#327),#345,.T.);
#492=CLOSED_SHELL('',(#474,#475,#476,#477,#478,#479,#480,#481,#482,#483,
#484,#485,#486,#487,#488,#489,#490,#491));
#493=MANIFOLD_SOLID_BREP('',#492);
#494=SHAPE_DEFINITION_REPRESENTATION(#706,#495);
#495=SHAPE_REPRESENTATION('WE-GFH 2520',(#496),#701);
#496=AXIS2_PLACEMENT_3D('',#601,#515,#516);
#497=AXIS2_PLACEMENT_3D('',#602,#517,#518);
#498=AXIS2_PLACEMENT_3D('',#627,#531,#532);
#499=AXIS2_PLACEMENT_3D('',#638,#539,#540);
#500=AXIS2_PLACEMENT_3D('',#649,#547,#548);
#501=AXIS2_PLACEMENT_3D('',#652,#551,#552);
#502=AXIS2_PLACEMENT_3D('',#653,#553,#554);
#503=AXIS2_PLACEMENT_3D('',#654,#555,#556);
#504=AXIS2_PLACEMENT_3D('',#660,#560,#561);
#505=AXIS2_PLACEMENT_3D('',#666,#565,#566);
#506=AXIS2_PLACEMENT_3D('',#672,#570,#571);
#507=AXIS2_PLACEMENT_3D('',#675,#574,#575);
#508=AXIS2_PLACEMENT_3D('',#676,#576,#577);
#509=AXIS2_PLACEMENT_3D('',#677,#578,#579);
#510=AXIS2_PLACEMENT_3D('',#683,#583,#584);
#511=AXIS2_PLACEMENT_3D('',#689,#588,#589);
#512=AXIS2_PLACEMENT_3D('',#695,#593,#594);
#513=AXIS2_PLACEMENT_3D('',#698,#597,#598);
#514=AXIS2_PLACEMENT_3D('',#699,#599,#600);
#515=DIRECTION('',(0.,0.,1.));
#516=DIRECTION('',(1.,0.,0.));
#517=DIRECTION('',(0.,0.,1.));
#518=DIRECTION('',(1.,0.,0.));
#519=DIRECTION('',(-1.,0.,-7.2280144832367E-16));
#520=DIRECTION('',(0.,-1.,0.));
#521=DIRECTION('',(-1.,0.,-7.2280144832367E-16));
#522=DIRECTION('',(0.,1.,0.));
#523=DIRECTION('',(1.,0.,0.));
#524=DIRECTION('',(0.,1.,0.));
#525=DIRECTION('',(1.,0.,-7.2280144832367E-16));
#526=DIRECTION('',(0.,-1.,0.));
#527=DIRECTION('',(1.,0.,-7.2280144832367E-16));
#528=DIRECTION('',(0.,1.,0.));
#529=DIRECTION('',(1.,0.,0.));
#530=DIRECTION('',(0.,1.,0.));
#531=DIRECTION('',(-1.,0.,0.));
#532=DIRECTION('',(0.,0.,1.));
#533=DIRECTION('',(4.33680868994203E-16,0.,-1.));
#534=DIRECTION('',(0.,0.,1.));
#535=DIRECTION('',(0.,1.,0.));
#536=DIRECTION('',(0.,0.,1.));
#537=DIRECTION('',(4.33680868994203E-16,0.,-1.));
#538=DIRECTION('',(0.,-1.,0.));
#539=DIRECTION('',(1.,0.,0.));
#540=DIRECTION('',(0.,0.,-1.));
#541=DIRECTION('',(-4.33680868994203E-16,0.,-1.));
#542=DIRECTION('',(0.,-1.,0.));
#543=DIRECTION('',(-4.33680868994203E-16,0.,-1.));
#544=DIRECTION('',(0.,0.,-1.));
#545=DIRECTION('',(0.,1.,0.));
#546=DIRECTION('',(0.,0.,-1.));
#547=DIRECTION('',(0.,0.,-1.));
#548=DIRECTION('',(-1.,0.,0.));
#549=DIRECTION('',(-1.,0.,0.));
#550=DIRECTION('',(-1.,0.,0.));
#551=DIRECTION('',(0.,-1.,0.));
#552=DIRECTION('',(0.,0.,-1.));
#553=DIRECTION('',(0.,-1.,0.));
#554=DIRECTION('',(0.,0.,-1.));
#555=DIRECTION('',(-5.42101086242751E-16,0.,-1.));
#556=DIRECTION('',(-1.,0.,5.42101086242751E-16));
#557=DIRECTION('',(1.,0.,-5.42101086242751E-16));
#558=DIRECTION('',(1.,0.,-5.42101086242751E-16));
#559=DIRECTION('',(0.,-1.,0.));
#560=DIRECTION('',(-1.,0.,-8.67361737988396E-15));
#561=DIRECTION('',(-8.67361737988396E-15,0.,1.));
#562=DIRECTION('',(8.67361737988396E-15,0.,-1.));
#563=DIRECTION('',(0.,-1.,0.));
#564=DIRECTION('',(8.67361737988396E-15,0.,-1.));
#565=DIRECTION('',(5.42101086242751E-16,0.,1.));
#566=DIRECTION('',(1.,0.,-5.42101086242751E-16));
#567=DIRECTION('',(-1.,0.,5.42101086242751E-16));
#568=DIRECTION('',(0.,-1.,0.));
#569=DIRECTION('',(-1.,0.,5.42101086242751E-16));
#570=DIRECTION('',(1.,0.,0.));
#571=DIRECTION('',(0.,0.,-1.));
#572=DIRECTION('',(0.,0.,1.));
#573=DIRECTION('',(0.,0.,1.));
#574=DIRECTION('',(0.,1.,0.));
#575=DIRECTION('',(0.,0.,1.));
#576=DIRECTION('',(0.,1.,0.));
#577=DIRECTION('',(0.,0.,1.));
#578=DIRECTION('',(-5.42101086242751E-16,0.,1.));
#579=DIRECTION('',(1.,0.,5.42101086242751E-16));
#580=DIRECTION('',(-1.,0.,-5.42101086242751E-16));
#581=DIRECTION('',(0.,-1.,0.));
#582=DIRECTION('',(-1.,0.,-5.42101086242751E-16));
#583=DIRECTION('',(-1.,0.,8.67361737988396E-15));
#584=DIRECTION('',(8.67361737988396E-15,0.,1.));
#585=DIRECTION('',(-8.67361737988396E-15,0.,-1.));
#586=DIRECTION('',(-8.67361737988396E-15,0.,-1.));
#587=DIRECTION('',(0.,-1.,0.));
#588=DIRECTION('',(5.42101086242751E-16,0.,-1.));
#589=DIRECTION('',(-1.,0.,-5.42101086242751E-16));
#590=DIRECTION('',(1.,0.,5.42101086242751E-16));
#591=DIRECTION('',(1.,0.,5.42101086242751E-16));
#592=DIRECTION('',(0.,-1.,0.));
#593=DIRECTION('',(1.,0.,0.));
#594=DIRECTION('',(0.,0.,-1.));
#595=DIRECTION('',(0.,0.,1.));
#596=DIRECTION('',(0.,0.,1.));
#597=DIRECTION('',(0.,-1.,0.));
#598=DIRECTION('',(0.,0.,-1.));
#599=DIRECTION('',(0.,-1.,0.));
#600=DIRECTION('',(0.,0.,-1.));
#601=CARTESIAN_POINT('',(0.,0.,0.));
#602=CARTESIAN_POINT('',(-1.15,-1.,-0.875));
#603=CARTESIAN_POINT('',(1.15,0.7,-0.875));
#604=CARTESIAN_POINT('',(1.15,0.7,-0.875));
#605=CARTESIAN_POINT('',(0.85,0.7,-0.875));
#606=CARTESIAN_POINT('',(0.85,0.7,-0.875));
#607=CARTESIAN_POINT('',(0.85,-0.7,-0.875));
#608=CARTESIAN_POINT('',(1.15,-0.7,-0.875));
#609=CARTESIAN_POINT('',(1.15,-0.7,-0.875));
#610=CARTESIAN_POINT('',(1.15,-1.,-0.875));
#611=CARTESIAN_POINT('',(1.15,-1.,-0.875));
#612=CARTESIAN_POINT('',(-1.15,-1.,-0.875));
#613=CARTESIAN_POINT('',(-1.15,-1.,-0.875));
#614=CARTESIAN_POINT('',(-1.15,-1.,-0.875));
#615=CARTESIAN_POINT('',(-1.15,-0.7,-0.875));
#616=CARTESIAN_POINT('',(-1.15,-0.7,-0.875));
#617=CARTESIAN_POINT('',(-0.85,-0.7,-0.875));
#618=CARTESIAN_POINT('',(-0.85,0.7,-0.875));
#619=CARTESIAN_POINT('',(-0.85,0.7,-0.875));
#620=CARTESIAN_POINT('',(-1.15,0.7,-0.875));
#621=CARTESIAN_POINT('',(-1.15,0.7,-0.875));
#622=CARTESIAN_POINT('',(-1.15,-1.,-0.875));
#623=CARTESIAN_POINT('',(-1.15,1.,-0.875));
#624=CARTESIAN_POINT('',(-1.15,1.,-0.875));
#625=CARTESIAN_POINT('',(1.15,1.,-0.875));
#626=CARTESIAN_POINT('',(1.15,-1.,-0.875));
#627=CARTESIAN_POINT('',(1.15,-1.,-0.875));
#628=CARTESIAN_POINT('',(1.15,0.7,-0.375000000000001));
#629=CARTESIAN_POINT('',(1.15,0.7,-0.375000000000001));
#630=CARTESIAN_POINT('',(1.15,1.,-0.875));
#631=CARTESIAN_POINT('',(1.15,1.,0.875));
#632=CARTESIAN_POINT('',(1.15,-1.,0.875));
#633=CARTESIAN_POINT('',(1.15,-1.,0.875));
#634=CARTESIAN_POINT('',(1.15,-1.,-0.875));
#635=CARTESIAN_POINT('',(1.15,-0.7,-0.375000000000001));
#636=CARTESIAN_POINT('',(1.15,-0.7,-0.375000000000001));
#637=CARTESIAN_POINT('',(1.15,0.7,-0.375000000000001));
#638=CARTESIAN_POINT('',(-1.15,-1.,0.875));
#639=CARTESIAN_POINT('',(-1.15,0.7,-0.375000000000001));
#640=CARTESIAN_POINT('',(-1.15,0.7,-0.375000000000001));
#641=CARTESIAN_POINT('',(-1.15,0.7,-0.375000000000001));
#642=CARTESIAN_POINT('',(-1.15,-0.7,-0.375000000000001));
#643=CARTESIAN_POINT('',(-1.15,-0.7,-0.375000000000001));
#644=CARTESIAN_POINT('',(-1.15,-1.,0.875));
#645=CARTESIAN_POINT('',(-1.15,-1.,0.875));
#646=CARTESIAN_POINT('',(-1.15,-1.,0.875));
#647=CARTESIAN_POINT('',(-1.15,1.,0.875));
#648=CARTESIAN_POINT('',(-1.15,1.,0.875));
#649=CARTESIAN_POINT('',(1.15,-1.,0.875));
#650=CARTESIAN_POINT('',(1.15,1.,0.875));
#651=CARTESIAN_POINT('',(1.15,-1.,0.875));
#652=CARTESIAN_POINT('',(0.,-1.,0.));
#653=CARTESIAN_POINT('',(0.,1.,0.));
#654=CARTESIAN_POINT('',(-1.15,0.7,-0.375000000000001));
#655=CARTESIAN_POINT('',(-1.15,-0.7,-0.375000000000001));
#656=CARTESIAN_POINT('',(-1.25,-0.7,-0.375000000000001));
#657=CARTESIAN_POINT('',(-1.15,0.7,-0.375000000000001));
#658=CARTESIAN_POINT('',(-1.25,0.7,-0.375000000000001));
#659=CARTESIAN_POINT('',(-1.25,0.7,-0.375000000000001));
#660=CARTESIAN_POINT('',(-0.85,0.7,-0.925000000000001));
#661=CARTESIAN_POINT('',(-0.85,-0.7,-0.925000000000001));
#662=CARTESIAN_POINT('',(-0.85,-0.7,-0.925000000000001));
#663=CARTESIAN_POINT('',(-0.85,0.7,-0.925000000000001));
#664=CARTESIAN_POINT('',(-0.85,0.7,-0.925000000000001));
#665=CARTESIAN_POINT('',(-0.85,0.7,-0.925000000000001));
#666=CARTESIAN_POINT('',(-1.25,0.7,-0.925));
#667=CARTESIAN_POINT('',(-1.25,-0.7,-0.925));
#668=CARTESIAN_POINT('',(-1.25,-0.7,-0.925));
#669=CARTESIAN_POINT('',(-1.25,0.7,-0.925));
#670=CARTESIAN_POINT('',(-1.25,0.7,-0.925));
#671=CARTESIAN_POINT('',(-1.25,0.7,-0.925));
#672=CARTESIAN_POINT('',(-1.25,0.7,-0.375000000000001));
#673=CARTESIAN_POINT('',(-1.25,-0.7,-0.375000000000001));
#674=CARTESIAN_POINT('',(-1.25,0.7,-0.375000000000001));
#675=CARTESIAN_POINT('',(0.,0.7,0.));
#676=CARTESIAN_POINT('',(0.,-0.7,0.));
#677=CARTESIAN_POINT('',(1.15,0.7,-0.375000000000001));
#678=CARTESIAN_POINT('',(1.15,-0.7,-0.375000000000001));
#679=CARTESIAN_POINT('',(1.25,-0.7,-0.375000000000001));
#680=CARTESIAN_POINT('',(1.25,0.7,-0.375000000000001));
#681=CARTESIAN_POINT('',(1.25,0.7,-0.375000000000001));
#682=CARTESIAN_POINT('',(1.15,0.7,-0.375000000000001));
#683=CARTESIAN_POINT('',(0.85,0.7,-0.925000000000001));
#684=CARTESIAN_POINT('',(0.85,-0.7,-0.925000000000001));
#685=CARTESIAN_POINT('',(0.85,-0.7,-0.925000000000001));
#686=CARTESIAN_POINT('',(0.85,0.7,-0.925000000000001));
#687=CARTESIAN_POINT('',(0.85,0.7,-0.925000000000001));
#688=CARTESIAN_POINT('',(0.85,0.7,-0.925000000000001));
#689=CARTESIAN_POINT('',(1.25,0.7,-0.925));
#690=CARTESIAN_POINT('',(1.25,-0.7,-0.925));
#691=CARTESIAN_POINT('',(1.25,-0.7,-0.925));
#692=CARTESIAN_POINT('',(1.25,0.7,-0.925));
#693=CARTESIAN_POINT('',(1.25,0.7,-0.925));
#694=CARTESIAN_POINT('',(1.25,0.7,-0.925));
#695=CARTESIAN_POINT('',(1.25,0.7,-0.375000000000001));
#696=CARTESIAN_POINT('',(1.25,-0.7,-0.375000000000001));
#697=CARTESIAN_POINT('',(1.25,0.7,-0.375000000000001));
#698=CARTESIAN_POINT('',(0.,0.7,0.));
#699=CARTESIAN_POINT('',(0.,-0.7,0.));
#700=MECHANICAL_DESIGN_GEOMETRIC_PRESENTATION_REPRESENTATION('',(#346,#347,
#348,#349,#350,#351,#352,#353,#354,#355,#356,#357,#358,#359,#360,#361,#362,
#363),#701);
#701=(
GEOMETRIC_REPRESENTATION_CONTEXT(3)
GLOBAL_UNCERTAINTY_ASSIGNED_CONTEXT((#702))
GLOBAL_UNIT_ASSIGNED_CONTEXT((#705,#704,#703))
REPRESENTATION_CONTEXT('WE-GFH 2520','TOP_LEVEL_ASSEMBLY_PART')
);
#702=UNCERTAINTY_MEASURE_WITH_UNIT(LENGTH_MEASURE(0.005),#705,
'DISTANCE_ACCURACY_VALUE','Maximum Tolerance applied to model');
#703=(
NAMED_UNIT(*)
SI_UNIT($,.STERADIAN.)
SOLID_ANGLE_UNIT()
);
#704=(
NAMED_UNIT(*)
PLANE_ANGLE_UNIT()
SI_UNIT($,.RADIAN.)
);
#705=(
LENGTH_UNIT()
NAMED_UNIT(*)
SI_UNIT(.MILLI.,.METRE.)
);
#706=PRODUCT_DEFINITION_SHAPE('','',#707);
#707=PRODUCT_DEFINITION('','',#709,#708);
#708=PRODUCT_DEFINITION_CONTEXT('',#715,'design');
#709=PRODUCT_DEFINITION_FORMATION_WITH_SPECIFIED_SOURCE('','',#711,
 .NOT_KNOWN.);
#710=PRODUCT_RELATED_PRODUCT_CATEGORY('','',(#711));
#711=PRODUCT('WE-GFH 2520','WE-GFH 2520','WE-GFH 2520',(#713));
#712=PRODUCT_CATEGORY('','');
#713=PRODUCT_CONTEXT('',#715,'mechanical');
#714=APPLICATION_PROTOCOL_DEFINITION('international standard',
'automotive_design',2010,#715);
#715=APPLICATION_CONTEXT(
'core data for automotive mechanical design processes');
ENDSEC;
END-ISO-10303-21;
