ISO-10303-21;
HEADER;
FILE_DESCRIPTION( ( 'Unknown' ), '1' );
FILE_NAME( 'I:/User_Groups_Only/17_EMC_Product_&_Development/Article_Master/eiCan/Assembly/AsSMSE/Master_Data/01_CAD_drawing/1_Drawing/9771xxx360/9771120360/Released_Data/9771120360.stp', 'Unknown', ( 'Unknown' ), ( 'Unknown' ), 'PSStep 16.0.42', 'Unknown', '  ' );
FILE_SCHEMA( ( 'AUTOMOTIVE_DESIGN { 1 0 10303 214 1 1 1 1 }' ) );
ENDSEC;
DATA;
#1 = MECHANICAL_DESIGN_GEOMETRIC_PRESENTATION_REPRESENTATION( ' ', ( #10, #11, #12, #13, #14, #15, #16, #17, #18, #19, #20, #21 ), #6 );
#2 = PRODUCT_DEFINITION_CONTEXT( '', #22, 'design' );
#3 = APPLICATION_PROTOCOL_DEFINITION( 'international standard', 'automotive_design', 2001, #22 );
#4 = PRODUCT_CATEGORY_RELATIONSHIP( 'NONE', 'NONE', #23, #24 );
#5 = SHAPE_DEFINITION_REPRESENTATION( #25, #26 );
#6 =  ( GEOMETRIC_REPRESENTATION_CONTEXT( 3 )GLOBAL_UNCERTAINTY_ASSIGNED_CONTEXT( ( #29 ) )GLOBAL_UNIT_ASSIGNED_CONTEXT( ( #31, #32, #33 ) )REPRESENTATION_CONTEXT( 'NONE', 'WORKSPACE' ) );
#10 = STYLED_ITEM( '', ( #35 ), #36 );
#11 = STYLED_ITEM( '', ( #37 ), #38 );
#12 = STYLED_ITEM( '', ( #39 ), #40 );
#13 = STYLED_ITEM( '', ( #41 ), #42 );
#14 = STYLED_ITEM( '', ( #43 ), #44 );
#15 = STYLED_ITEM( '', ( #45 ), #46 );
#16 = STYLED_ITEM( '', ( #47 ), #48 );
#17 = STYLED_ITEM( '', ( #49 ), #50 );
#18 = STYLED_ITEM( '', ( #51 ), #52 );
#19 = STYLED_ITEM( '', ( #53 ), #54 );
#20 = STYLED_ITEM( '', ( #55 ), #56 );
#21 = STYLED_ITEM( '', ( #57 ), #58 );
#22 = APPLICATION_CONTEXT( 'core data for automotive mechanical design processes' );
#23 = PRODUCT_CATEGORY( 'part', 'NONE' );
#24 = PRODUCT_RELATED_PRODUCT_CATEGORY( 'detail', ' ', ( #59 ) );
#25 = PRODUCT_DEFINITION_SHAPE( 'NONE', 'NONE', #60 );
#26 = ADVANCED_BREP_SHAPE_REPRESENTATION( '1', ( #61, #62 ), #6 );
#29 = UNCERTAINTY_MEASURE_WITH_UNIT( LENGTH_MEASURE( 0.00100000000000000 ), #31, '', '' );
#31 =  ( CONVERSION_BASED_UNIT( 'MILLIMETRE', #65 )LENGTH_UNIT(  )NAMED_UNIT( #68 ) );
#32 =  ( NAMED_UNIT( #70 )PLANE_ANGLE_UNIT(  )SI_UNIT( $, .RADIAN. ) );
#33 =  ( NAMED_UNIT( #70 )SI_UNIT( $, .STERADIAN. )SOLID_ANGLE_UNIT(  ) );
#35 = PRESENTATION_STYLE_ASSIGNMENT( ( #76 ) );
#36 = ADVANCED_FACE( '', ( #77, #78 ), #79, .T. );
#37 = PRESENTATION_STYLE_ASSIGNMENT( ( #80 ) );
#38 = ADVANCED_FACE( '', ( #81, #82 ), #83, .T. );
#39 = PRESENTATION_STYLE_ASSIGNMENT( ( #84 ) );
#40 = ADVANCED_FACE( '', ( #85, #86 ), #87, .T. );
#41 = PRESENTATION_STYLE_ASSIGNMENT( ( #88 ) );
#42 = ADVANCED_FACE( '', ( #89 ), #90, .T. );
#43 = PRESENTATION_STYLE_ASSIGNMENT( ( #91 ) );
#44 = ADVANCED_FACE( '', ( #92, #93 ), #94, .F. );
#45 = PRESENTATION_STYLE_ASSIGNMENT( ( #95 ) );
#46 = ADVANCED_FACE( '', ( #96, #97 ), #98, .T. );
#47 = PRESENTATION_STYLE_ASSIGNMENT( ( #99 ) );
#48 = ADVANCED_FACE( '', ( #100 ), #101, .T. );
#49 = PRESENTATION_STYLE_ASSIGNMENT( ( #102 ) );
#50 = ADVANCED_FACE( '', ( #103, #104 ), #105, .F. );
#51 = PRESENTATION_STYLE_ASSIGNMENT( ( #106 ) );
#52 = ADVANCED_FACE( '', ( #107, #108 ), #109, .T. );
#53 = PRESENTATION_STYLE_ASSIGNMENT( ( #110 ) );
#54 = ADVANCED_FACE( '', ( #111, #112 ), #113, .T. );
#55 = PRESENTATION_STYLE_ASSIGNMENT( ( #114 ) );
#56 = ADVANCED_FACE( '', ( #115, #116 ), #117, .T. );
#57 = PRESENTATION_STYLE_ASSIGNMENT( ( #118 ) );
#58 = ADVANCED_FACE( '', ( #119, #120 ), #121, .T. );
#59 = PRODUCT( '1', '1', 'PART-1-DESC', ( #122 ) );
#60 = PRODUCT_DEFINITION( 'NONE', 'NONE', #123, #2 );
#61 = MANIFOLD_SOLID_BREP( '1', #124 );
#62 = AXIS2_PLACEMENT_3D( '', #125, #126, #127 );
#65 = LENGTH_MEASURE_WITH_UNIT( LENGTH_MEASURE( 1.00000000000000 ), #128 );
#68 = DIMENSIONAL_EXPONENTS( 1.00000000000000, 0.000000000000000, 0.000000000000000, 0.000000000000000, 0.000000000000000, 0.000000000000000, 0.000000000000000 );
#70 = DIMENSIONAL_EXPONENTS( 0.000000000000000, 0.000000000000000, 0.000000000000000, 0.000000000000000, 0.000000000000000, 0.000000000000000, 0.000000000000000 );
#76 = SURFACE_STYLE_USAGE( .BOTH., #129 );
#77 = FACE_BOUND( '', #130, .T. );
#78 = FACE_OUTER_BOUND( '', #131, .T. );
#79 = CONICAL_SURFACE( '', #132, 1.50000000000003, 0.785398163397448 );
#80 = SURFACE_STYLE_USAGE( .BOTH., #133 );
#81 = FACE_OUTER_BOUND( '', #134, .T. );
#82 = FACE_BOUND( '', #135, .T. );
#83 = CONICAL_SURFACE( '', #136, 1.12655601659756, 0.521204783494657 );
#84 = SURFACE_STYLE_USAGE( .BOTH., #137 );
#85 = FACE_BOUND( '', #138, .T. );
#86 = FACE_OUTER_BOUND( '', #139, .T. );
#87 = PLANE( '', #140 );
#88 = SURFACE_STYLE_USAGE( .BOTH., #141 );
#89 = FACE_OUTER_BOUND( '', #142, .T. );
#90 = PLANE( '', #143 );
#91 = SURFACE_STYLE_USAGE( .BOTH., #144 );
#92 = FACE_OUTER_BOUND( '', #145, .T. );
#93 = FACE_OUTER_BOUND( '', #146, .T. );
#94 = TOROIDAL_SURFACE( '', #147, 1.30000000000005, 0.200000000000000 );
#95 = SURFACE_STYLE_USAGE( .BOTH., #148 );
#96 = FACE_OUTER_BOUND( '', #149, .T. );
#97 = FACE_OUTER_BOUND( '', #150, .T. );
#98 = CYLINDRICAL_SURFACE( '', #151, 3.00000000000000 );
#99 = SURFACE_STYLE_USAGE( .BOTH., #152 );
#100 = FACE_OUTER_BOUND( '', #153, .T. );
#101 = PLANE( '', #154 );
#102 = SURFACE_STYLE_USAGE( .BOTH., #155 );
#103 = FACE_OUTER_BOUND( '', #156, .T. );
#104 = FACE_OUTER_BOUND( '', #157, .T. );
#105 = TOROIDAL_SURFACE( '', #158, 1.30000000000005, 0.200000000000000 );
#106 = SURFACE_STYLE_USAGE( .BOTH., #159 );
#107 = FACE_OUTER_BOUND( '', #160, .T. );
#108 = FACE_BOUND( '', #161, .T. );
#109 = PLANE( '', #162 );
#110 = SURFACE_STYLE_USAGE( .BOTH., #163 );
#111 = FACE_OUTER_BOUND( '', #164, .T. );
#112 = FACE_OUTER_BOUND( '', #165, .T. );
#113 = CYLINDRICAL_SURFACE( '', #166, 1.50000000000003 );
#114 = SURFACE_STYLE_USAGE( .BOTH., #167 );
#115 = FACE_OUTER_BOUND( '', #168, .T. );
#116 = FACE_OUTER_BOUND( '', #169, .T. );
#117 = CYLINDRICAL_SURFACE( '', #170, 1.10000000000005 );
#118 = SURFACE_STYLE_USAGE( .BOTH., #171 );
#119 = FACE_OUTER_BOUND( '', #172, .T. );
#120 = FACE_OUTER_BOUND( '', #173, .T. );
#121 = CYLINDRICAL_SURFACE( '', #174, 0.400000000000009 );
#122 = PRODUCT_CONTEXT( '', #22, 'mechanical' );
#123 = PRODUCT_DEFINITION_FORMATION_WITH_SPECIFIED_SOURCE( ' ', 'NONE', #59, .NOT_KNOWN. );
#124 = CLOSED_SHELL( '', ( #54, #36, #42, #52, #46, #40, #48, #50, #56, #58, #44, #38 ) );
#125 = CARTESIAN_POINT( '', ( 0.000000000000000, 0.000000000000000, 0.000000000000000 ) );
#126 = DIRECTION( '', ( 0.000000000000000, 0.000000000000000, 1.00000000000000 ) );
#127 = DIRECTION( '', ( 1.00000000000000, 0.000000000000000, 0.000000000000000 ) );
#128 =  ( LENGTH_UNIT(  )NAMED_UNIT( #68 )SI_UNIT( .MILLI., .METRE. ) );
#129 = SURFACE_SIDE_STYLE( '', ( #176 ) );
#130 = EDGE_LOOP( '', ( #177 ) );
#131 = EDGE_LOOP( '', ( #178 ) );
#132 = AXIS2_PLACEMENT_3D( '', #179, #180, #181 );
#133 = SURFACE_SIDE_STYLE( '', ( #182 ) );
#134 = EDGE_LOOP( '', ( #183 ) );
#135 = EDGE_LOOP( '', ( #184 ) );
#136 = AXIS2_PLACEMENT_3D( '', #185, #186, #187 );
#137 = SURFACE_SIDE_STYLE( '', ( #188 ) );
#138 = EDGE_LOOP( '', ( #189 ) );
#139 = EDGE_LOOP( '', ( #190 ) );
#140 = AXIS2_PLACEMENT_3D( '', #191, #192, #193 );
#141 = SURFACE_SIDE_STYLE( '', ( #194 ) );
#142 = EDGE_LOOP( '', ( #195 ) );
#143 = AXIS2_PLACEMENT_3D( '', #196, #197, #198 );
#144 = SURFACE_SIDE_STYLE( '', ( #199 ) );
#145 = EDGE_LOOP( '', ( #200 ) );
#146 = EDGE_LOOP( '', ( #201 ) );
#147 = AXIS2_PLACEMENT_3D( '', #202, #203, #204 );
#148 = SURFACE_SIDE_STYLE( '', ( #205 ) );
#149 = EDGE_LOOP( '', ( #206 ) );
#150 = EDGE_LOOP( '', ( #207 ) );
#151 = AXIS2_PLACEMENT_3D( '', #208, #209, #210 );
#152 = SURFACE_SIDE_STYLE( '', ( #211 ) );
#153 = EDGE_LOOP( '', ( #212 ) );
#154 = AXIS2_PLACEMENT_3D( '', #213, #214, #215 );
#155 = SURFACE_SIDE_STYLE( '', ( #216 ) );
#156 = EDGE_LOOP( '', ( #217 ) );
#157 = EDGE_LOOP( '', ( #218 ) );
#158 = AXIS2_PLACEMENT_3D( '', #219, #220, #221 );
#159 = SURFACE_SIDE_STYLE( '', ( #222 ) );
#160 = EDGE_LOOP( '', ( #223 ) );
#161 = EDGE_LOOP( '', ( #224 ) );
#162 = AXIS2_PLACEMENT_3D( '', #225, #226, #227 );
#163 = SURFACE_SIDE_STYLE( '', ( #228 ) );
#164 = EDGE_LOOP( '', ( #229 ) );
#165 = EDGE_LOOP( '', ( #230 ) );
#166 = AXIS2_PLACEMENT_3D( '', #231, #232, #233 );
#167 = SURFACE_SIDE_STYLE( '', ( #234 ) );
#168 = EDGE_LOOP( '', ( #235 ) );
#169 = EDGE_LOOP( '', ( #236 ) );
#170 = AXIS2_PLACEMENT_3D( '', #237, #238, #239 );
#171 = SURFACE_SIDE_STYLE( '', ( #240 ) );
#172 = EDGE_LOOP( '', ( #241 ) );
#173 = EDGE_LOOP( '', ( #242 ) );
#174 = AXIS2_PLACEMENT_3D( '', #243, #244, #245 );
#176 = SURFACE_STYLE_FILL_AREA( #246 );
#177 = ORIENTED_EDGE( '', *, *, #247, .F. );
#178 = ORIENTED_EDGE( '', *, *, #248, .F. );
#179 = CARTESIAN_POINT( '', ( 1.20676415720126E-016, 10.8000000000000, 0.000000000000000 ) );
#180 = DIRECTION( '', ( 6.03382078600635E-016, -1.00000000000000, 0.000000000000000 ) );
#181 = DIRECTION( '', ( 1.00000000000000, 6.03382078600635E-016, 0.000000000000000 ) );
#182 = SURFACE_STYLE_FILL_AREA( #249 );
#183 = ORIENTED_EDGE( '', *, *, #250, .T. );
#184 = ORIENTED_EDGE( '', *, *, #251, .F. );
#185 = CARTESIAN_POINT( '', ( 3.42864372299435E-016, 5.59958506224059, 4.01668343376657E-015 ) );
#186 = DIRECTION( '', ( 6.12303176911189E-017, 1.00000000000000, 6.12303176911189E-017 ) );
#187 = DIRECTION( '', ( 0.000000000000000, -6.12303176911189E-017, 1.00000000000000 ) );
#188 = SURFACE_STYLE_FILL_AREA( #252 );
#189 = ORIENTED_EDGE( '', *, *, #253, .T. );
#190 = ORIENTED_EDGE( '', *, *, #254, .F. );
#191 = CARTESIAN_POINT( '', ( -3.00000000000000, 4.99999999999994, 0.000000000000000 ) );
#192 = DIRECTION( '', ( -6.03382078600632E-016, 1.00000000000000, 0.000000000000000 ) );
#193 = DIRECTION( '', ( -1.00000000000000, -6.03382078600632E-016, 0.000000000000000 ) );
#194 = SURFACE_STYLE_FILL_AREA( #255 );
#195 = ORIENTED_EDGE( '', *, *, #247, .T. );
#196 = CARTESIAN_POINT( '', ( -1.50000000000000, 11.0000000000000, 0.000000000000000 ) );
#197 = DIRECTION( '', ( -6.03382078600632E-016, 1.00000000000000, 0.000000000000000 ) );
#198 = DIRECTION( '', ( -1.00000000000000, -6.03382078600632E-016, 0.000000000000000 ) );
#199 = SURFACE_STYLE_FILL_AREA( #256 );
#200 = ORIENTED_EDGE( '', *, *, #251, .T. );
#201 = ORIENTED_EDGE( '', *, *, #257, .F. );
#202 = CARTESIAN_POINT( '', ( 3.36766747301149E-016, 5.49999999999993, 3.90312782094781E-015 ) );
#203 = DIRECTION( '', ( -6.12303176911189E-017, -1.00000000000000, -6.12303176911189E-017 ) );
#204 = DIRECTION( '', ( 0.000000000000000, 6.12303176911189E-017, -1.00000000000000 ) );
#205 = SURFACE_STYLE_FILL_AREA( #258 );
#206 = ORIENTED_EDGE( '', *, *, #254, .T. );
#207 = ORIENTED_EDGE( '', *, *, #259, .F. );
#208 = CARTESIAN_POINT( '', ( 6.93889390390723E-015, -0.500000000000000, 0.000000000000000 ) );
#209 = DIRECTION( '', ( -6.03382078600632E-016, 1.00000000000000, -0.000000000000000 ) );
#210 = DIRECTION( '', ( 1.00000000000000, 6.03382078600632E-016, 0.000000000000000 ) );
#211 = SURFACE_STYLE_FILL_AREA( #260 );
#212 = ORIENTED_EDGE( '', *, *, #261, .T. );
#213 = CARTESIAN_POINT( '', ( -0.400000000000000, -7.50000000000000, 0.000000000000000 ) );
#214 = DIRECTION( '', ( 6.03382078600632E-016, -1.00000000000000, 0.000000000000000 ) );
#215 = DIRECTION( '', ( 1.00000000000000, 6.03382078600632E-016, 0.000000000000000 ) );
#216 = SURFACE_STYLE_FILL_AREA( #262 );
#217 = ORIENTED_EDGE( '', *, *, #263, .T. );
#218 = ORIENTED_EDGE( '', *, *, #253, .F. );
#219 = CARTESIAN_POINT( '', ( 3.18397651993814E-016, 5.19999999999993, 3.90312782094781E-015 ) );
#220 = DIRECTION( '', ( -6.12303176911189E-017, -1.00000000000000, -6.12303176911189E-017 ) );
#221 = DIRECTION( '', ( 0.000000000000000, 6.12303176911189E-017, -1.00000000000000 ) );
#222 = SURFACE_STYLE_FILL_AREA( #264 );
#223 = ORIENTED_EDGE( '', *, *, #259, .T. );
#224 = ORIENTED_EDGE( '', *, *, #265, .F. );
#225 = CARTESIAN_POINT( '', ( -3.00000000000000, -7.00000000000008, 0.000000000000000 ) );
#226 = DIRECTION( '', ( 6.03382078600632E-016, -1.00000000000000, 0.000000000000000 ) );
#227 = DIRECTION( '', ( 1.00000000000000, 6.03382078600632E-016, 0.000000000000000 ) );
#228 = SURFACE_STYLE_FILL_AREA( #266 );
#229 = ORIENTED_EDGE( '', *, *, #248, .T. );
#230 = ORIENTED_EDGE( '', *, *, #250, .F. );
#231 = CARTESIAN_POINT( '', ( 6.93889390390723E-015, -0.500000000000000, 0.000000000000000 ) );
#232 = DIRECTION( '', ( -6.03382078600632E-016, 1.00000000000000, -0.000000000000000 ) );
#233 = DIRECTION( '', ( 1.00000000000000, 6.03382078600632E-016, 0.000000000000000 ) );
#234 = SURFACE_STYLE_FILL_AREA( #267 );
#235 = ORIENTED_EDGE( '', *, *, #257, .T. );
#236 = ORIENTED_EDGE( '', *, *, #263, .F. );
#237 = CARTESIAN_POINT( '', ( -3.67381906146713E-015, -60.0000000000000, 0.000000000000000 ) );
#238 = DIRECTION( '', ( 6.12303176911189E-017, 1.00000000000000, 6.12303176911189E-017 ) );
#239 = DIRECTION( '', ( 0.000000000000000, 6.12303176911189E-017, -1.00000000000000 ) );
#240 = SURFACE_STYLE_FILL_AREA( #268 );
#241 = ORIENTED_EDGE( '', *, *, #265, .T. );
#242 = ORIENTED_EDGE( '', *, *, #261, .F. );
#243 = CARTESIAN_POINT( '', ( 6.93889390390723E-015, -0.500000000000000, 0.000000000000000 ) );
#244 = DIRECTION( '', ( -6.03382078600632E-016, 1.00000000000000, -0.000000000000000 ) );
#245 = DIRECTION( '', ( 1.00000000000000, 6.03382078600632E-016, 0.000000000000000 ) );
#246 = FILL_AREA_STYLE( '', ( #269 ) );
#247 = EDGE_CURVE( '', #270, #270, #271, .T. );
#248 = EDGE_CURVE( '', #272, #272, #273, .F. );
#249 = FILL_AREA_STYLE( '', ( #274 ) );
#250 = EDGE_CURVE( '', #275, #275, #276, .T. );
#251 = EDGE_CURVE( '', #277, #277, #278, .T. );
#252 = FILL_AREA_STYLE( '', ( #279 ) );
#253 = EDGE_CURVE( '', #280, #280, #281, .T. );
#254 = EDGE_CURVE( '', #282, #282, #283, .T. );
#255 = FILL_AREA_STYLE( '', ( #284 ) );
#256 = FILL_AREA_STYLE( '', ( #285 ) );
#257 = EDGE_CURVE( '', #286, #286, #287, .T. );
#258 = FILL_AREA_STYLE( '', ( #288 ) );
#259 = EDGE_CURVE( '', #289, #289, #290, .T. );
#260 = FILL_AREA_STYLE( '', ( #291 ) );
#261 = EDGE_CURVE( '', #292, #292, #293, .T. );
#262 = FILL_AREA_STYLE( '', ( #294 ) );
#263 = EDGE_CURVE( '', #295, #295, #296, .T. );
#264 = FILL_AREA_STYLE( '', ( #297 ) );
#265 = EDGE_CURVE( '', #298, #298, #299, .T. );
#266 = FILL_AREA_STYLE( '', ( #300 ) );
#267 = FILL_AREA_STYLE( '', ( #301 ) );
#268 = FILL_AREA_STYLE( '', ( #302 ) );
#269 = FILL_AREA_STYLE_COLOUR( '', #303 );
#270 = VERTEX_POINT( '', #304 );
#271 = CIRCLE( '', #305, 1.30000000000003 );
#272 = VERTEX_POINT( '', #306 );
#273 = CIRCLE( '', #307, 1.50000000000003 );
#274 = FILL_AREA_STYLE_COLOUR( '', #308 );
#275 = VERTEX_POINT( '', #309 );
#276 = CIRCLE( '', #310, 1.50000000000004 );
#277 = VERTEX_POINT( '', #311 );
#278 = CIRCLE( '', #312, 1.12655601659756 );
#279 = FILL_AREA_STYLE_COLOUR( '', #313 );
#280 = VERTEX_POINT( '', #314 );
#281 = CIRCLE( '', #315, 1.30000000000007 );
#282 = VERTEX_POINT( '', #316 );
#283 = CIRCLE( '', #317, 3.00000000000000 );
#284 = FILL_AREA_STYLE_COLOUR( '', #318 );
#285 = FILL_AREA_STYLE_COLOUR( '', #319 );
#286 = VERTEX_POINT( '', #320 );
#287 = CIRCLE( '', #321, 1.10000000000005 );
#288 = FILL_AREA_STYLE_COLOUR( '', #322 );
#289 = VERTEX_POINT( '', #323 );
#290 = CIRCLE( '', #324, 3.00000000000000 );
#291 = FILL_AREA_STYLE_COLOUR( '', #325 );
#292 = VERTEX_POINT( '', #326 );
#293 = CIRCLE( '', #327, 0.400000000000009 );
#294 = FILL_AREA_STYLE_COLOUR( '', #328 );
#295 = VERTEX_POINT( '', #329 );
#296 = CIRCLE( '', #330, 1.10000000000005 );
#297 = FILL_AREA_STYLE_COLOUR( '', #331 );
#298 = VERTEX_POINT( '', #332 );
#299 = CIRCLE( '', #333, 0.400000000000009 );
#300 = FILL_AREA_STYLE_COLOUR( '', #334 );
#301 = FILL_AREA_STYLE_COLOUR( '', #335 );
#302 = FILL_AREA_STYLE_COLOUR( '', #336 );
#303 = COLOUR_RGB( '', 0.643137276172638, 0.678431391716003, 0.698039233684540 );
#304 = CARTESIAN_POINT( '', ( -1.30000000000003, 11.0000000000000, 0.000000000000000 ) );
#305 = AXIS2_PLACEMENT_3D( '', #337, #338, #339 );
#306 = CARTESIAN_POINT( '', ( -1.50000000000003, 10.8000000000000, 0.000000000000000 ) );
#307 = AXIS2_PLACEMENT_3D( '', #340, #341, #342 );
#308 = COLOUR_RGB( '', 0.643137276172638, 0.678431391716003, 0.698039233684540 );
#309 = CARTESIAN_POINT( '', ( 3.82689485569490E-016, 6.25000000000000, -1.50000000000004 ) );
#310 = AXIS2_PLACEMENT_3D( '', #343, #344, #345 );
#311 = CARTESIAN_POINT( '', ( 3.42864372299435E-016, 5.59958506224059, -1.12655601659756 ) );
#312 = AXIS2_PLACEMENT_3D( '', #346, #347, #348 );
#313 = COLOUR_RGB( '', 0.643137276172638, 0.678431391716003, 0.698039233684540 );
#314 = CARTESIAN_POINT( '', ( 3.06151588455589E-016, 4.99999999999992, -1.30000000000007 ) );
#315 = AXIS2_PLACEMENT_3D( '', #349, #350, #351 );
#316 = CARTESIAN_POINT( '', ( 3.00000000000000, 4.99999999999993, 0.000000000000000 ) );
#317 = AXIS2_PLACEMENT_3D( '', #352, #353, #354 );
#318 = COLOUR_RGB( '', 0.643137276172638, 0.678431391716003, 0.698039233684540 );
#319 = COLOUR_RGB( '', 0.643137276172638, 0.678431391716003, 0.698039233684540 );
#320 = CARTESIAN_POINT( '', ( 3.36766747301149E-016, 5.49999999999992, -1.10000000000005 ) );
#321 = AXIS2_PLACEMENT_3D( '', #355, #356, #357 );
#322 = COLOUR_RGB( '', 0.643137276172638, 0.678431391716003, 0.698039233684540 );
#323 = CARTESIAN_POINT( '', ( 3.00000000000001, -7.00000000000000, 0.000000000000000 ) );
#324 = AXIS2_PLACEMENT_3D( '', #358, #359, #360 );
#325 = COLOUR_RGB( '', 0.643137276172638, 0.678431391716003, 0.698039233684540 );
#326 = CARTESIAN_POINT( '', ( 0.400000000000020, -7.50000000000000, 0.000000000000000 ) );
#327 = AXIS2_PLACEMENT_3D( '', #361, #362, #363 );
#328 = COLOUR_RGB( '', 0.643137276172638, 0.678431391716003, 0.698039233684540 );
#329 = CARTESIAN_POINT( '', ( 3.18397651993814E-016, 5.19999999999993, -1.10000000000005 ) );
#330 = AXIS2_PLACEMENT_3D( '', #364, #365, #366 );
#331 = COLOUR_RGB( '', 0.643137276172638, 0.678431391716003, 0.698039233684540 );
#332 = CARTESIAN_POINT( '', ( 0.400000000000019, -7.00000000000008, 0.000000000000000 ) );
#333 = AXIS2_PLACEMENT_3D( '', #367, #368, #369 );
#334 = COLOUR_RGB( '', 0.639215707778931, 0.666666686534882, 0.686274528503418 );
#335 = COLOUR_RGB( '', 0.643137276172638, 0.678431391716003, 0.698039233684540 );
#336 = COLOUR_RGB( '', 0.643137276172638, 0.678431391716003, 0.698039233684540 );
#337 = CARTESIAN_POINT( '', ( -1.07241349573450E-030, 11.0000000000000, 0.000000000000000 ) );
#338 = DIRECTION( '', ( -6.03382078600632E-016, 1.00000000000000, 0.000000000000000 ) );
#339 = DIRECTION( '', ( -1.00000000000000, -6.03382078600632E-016, 0.000000000000000 ) );
#340 = CARTESIAN_POINT( '', ( 1.20676415720126E-016, 10.8000000000000, 0.000000000000000 ) );
#341 = DIRECTION( '', ( -6.03382078600635E-016, 1.00000000000000, 0.000000000000000 ) );
#342 = DIRECTION( '', ( -1.00000000000000, -6.03382078600635E-016, 0.000000000000000 ) );
#343 = CARTESIAN_POINT( '', ( 3.82689485569490E-016, 6.25000000000000, 4.05650854703662E-015 ) );
#344 = DIRECTION( '', ( -6.12303176911189E-017, -1.00000000000000, -6.12303176911189E-017 ) );
#345 = DIRECTION( '', ( 0.000000000000000, 6.12303176911189E-017, -1.00000000000000 ) );
#346 = CARTESIAN_POINT( '', ( 3.42864372299435E-016, 5.59958506224059, 4.01668343376657E-015 ) );
#347 = DIRECTION( '', ( -6.12303176911189E-017, -1.00000000000000, -6.12303176911189E-017 ) );
#348 = DIRECTION( '', ( 0.000000000000000, 6.12303176911189E-017, -1.00000000000000 ) );
#349 = CARTESIAN_POINT( '', ( 3.06151588455589E-016, 4.99999999999992, 3.97997064992272E-015 ) );
#350 = DIRECTION( '', ( -6.12303176911189E-017, -1.00000000000000, -6.12303176911189E-017 ) );
#351 = DIRECTION( '', ( 0.000000000000000, 6.12303176911189E-017, -1.00000000000000 ) );
#352 = CARTESIAN_POINT( '', ( 3.62029247160379E-015, 4.99999999999993, 0.000000000000000 ) );
#353 = DIRECTION( '', ( 6.03382078600632E-016, -1.00000000000000, 0.000000000000000 ) );
#354 = DIRECTION( '', ( 1.00000000000000, 6.03382078600632E-016, 0.000000000000000 ) );
#355 = CARTESIAN_POINT( '', ( 3.36766747301149E-016, 5.49999999999992, 4.01058580876828E-015 ) );
#356 = DIRECTION( '', ( -6.12303176911189E-017, -1.00000000000000, -6.12303176911189E-017 ) );
#357 = DIRECTION( '', ( 0.000000000000000, 6.12303176911189E-017, -1.00000000000000 ) );
#358 = CARTESIAN_POINT( '', ( 1.08608774148114E-014, -7.00000000000000, 0.000000000000000 ) );
#359 = DIRECTION( '', ( 6.03382078600632E-016, -1.00000000000000, 0.000000000000000 ) );
#360 = DIRECTION( '', ( 1.00000000000000, 6.03382078600632E-016, 0.000000000000000 ) );
#361 = CARTESIAN_POINT( '', ( 1.11625684541117E-014, -7.50000000000000, 0.000000000000000 ) );
#362 = DIRECTION( '', ( 6.03382078600632E-016, -1.00000000000000, 0.000000000000000 ) );
#363 = DIRECTION( '', ( 1.00000000000000, 6.03382078600632E-016, 0.000000000000000 ) );
#364 = CARTESIAN_POINT( '', ( 3.18397651993814E-016, 5.19999999999993, 3.99221671346094E-015 ) );
#365 = DIRECTION( '', ( -6.12303176911189E-017, -1.00000000000000, -6.12303176911189E-017 ) );
#366 = DIRECTION( '', ( 0.000000000000000, 6.12303176911189E-017, -1.00000000000000 ) );
#367 = CARTESIAN_POINT( '', ( 1.08608774148114E-014, -7.00000000000008, 0.000000000000000 ) );
#368 = DIRECTION( '', ( 6.03382078600632E-016, -1.00000000000000, 0.000000000000000 ) );
#369 = DIRECTION( '', ( 1.00000000000000, 6.03382078600632E-016, 0.000000000000000 ) );
ENDSEC;
END-ISO-10303-21;
