ISO-10303-21;
HEADER;
FILE_DESCRIPTION( ( 'Unknown' ), '1' );
FILE_NAME( 'I:/User_Groups_Only/17_EMC_Product_&_Development/Article_Master/eiCan/Assembly/AsSMSE/Master_Data/01_CAD_drawing/1_Drawing/9771xxx360/9771070360/Released_Data/9771070360.stp', 'Unknown', ( 'Unknown' ), ( 'Unknown' ), 'PSStep 16.0.42', 'Unknown', '  ' );
FILE_SCHEMA( ( 'AUTOMOTIVE_DESIGN { 1 0 10303 214 1 1 1 1 }' ) );
ENDSEC;
DATA;
#1 = MECHANICAL_DESIGN_GEOMETRIC_PRESENTATION_REPRESENTATION( ' ', ( #10, #11, #12, #13, #14, #15, #16, #17, #18, #19, #20, #21 ), #6 );
#2 = PRODUCT_DEFINITION_CONTEXT( '', #22, 'design' );
#3 = APPLICATION_PROTOCOL_DEFINITION( 'international standard', 'automotive_design', 2001, #22 );
#4 = PRODUCT_CATEGORY_RELATIONSHIP( 'NONE', 'NONE', #23, #24 );
#5 = SHAPE_DEFINITION_REPRESENTATION( #25, #26 );
#6 =  ( GEOMETRIC_REPRESENTATION_CONTEXT( 3 )GLOBAL_UNCERTAINTY_ASSIGNED_CONTEXT( ( #29 ) )GLOBAL_UNIT_ASSIGNED_CONTEXT( ( #31, #32, #33 ) )REPRESENTATION_CONTEXT( 'NONE', 'WORKSPACE' ) );
#10 = STYLED_ITEM( '', ( #35 ), #36 );
#11 = STYLED_ITEM( '', ( #37 ), #38 );
#12 = STYLED_ITEM( '', ( #39 ), #40 );
#13 = STYLED_ITEM( '', ( #41 ), #42 );
#14 = STYLED_ITEM( '', ( #43 ), #44 );
#15 = STYLED_ITEM( '', ( #45 ), #46 );
#16 = STYLED_ITEM( '', ( #47 ), #48 );
#17 = STYLED_ITEM( '', ( #49 ), #50 );
#18 = STYLED_ITEM( '', ( #51 ), #52 );
#19 = STYLED_ITEM( '', ( #53 ), #54 );
#20 = STYLED_ITEM( '', ( #55 ), #56 );
#21 = STYLED_ITEM( '', ( #57 ), #58 );
#22 = APPLICATION_CONTEXT( 'core data for automotive mechanical design processes' );
#23 = PRODUCT_CATEGORY( 'part', 'NONE' );
#24 = PRODUCT_RELATED_PRODUCT_CATEGORY( 'detail', ' ', ( #59 ) );
#25 = PRODUCT_DEFINITION_SHAPE( 'NONE', 'NONE', #60 );
#26 = ADVANCED_BREP_SHAPE_REPRESENTATION( '1', ( #61, #62 ), #6 );
#29 = UNCERTAINTY_MEASURE_WITH_UNIT( LENGTH_MEASURE( 0.00100000000000000 ), #31, '', '' );
#31 =  ( CONVERSION_BASED_UNIT( 'MILLIMETRE', #65 )LENGTH_UNIT(  )NAMED_UNIT( #68 ) );
#32 =  ( NAMED_UNIT( #70 )PLANE_ANGLE_UNIT(  )SI_UNIT( $, .RADIAN. ) );
#33 =  ( NAMED_UNIT( #70 )SI_UNIT( $, .STERADIAN. )SOLID_ANGLE_UNIT(  ) );
#35 = PRESENTATION_STYLE_ASSIGNMENT( ( #76 ) );
#36 = ADVANCED_FACE( '', ( #77, #78 ), #79, .T. );
#37 = PRESENTATION_STYLE_ASSIGNMENT( ( #80 ) );
#38 = ADVANCED_FACE( '', ( #81 ), #82, .T. );
#39 = PRESENTATION_STYLE_ASSIGNMENT( ( #83 ) );
#40 = ADVANCED_FACE( '', ( #84, #85 ), #86, .F. );
#41 = PRESENTATION_STYLE_ASSIGNMENT( ( #87 ) );
#42 = ADVANCED_FACE( '', ( #88, #89 ), #90, .T. );
#43 = PRESENTATION_STYLE_ASSIGNMENT( ( #91 ) );
#44 = ADVANCED_FACE( '', ( #92, #93 ), #94, .T. );
#45 = PRESENTATION_STYLE_ASSIGNMENT( ( #95 ) );
#46 = ADVANCED_FACE( '', ( #96, #97 ), #98, .T. );
#47 = PRESENTATION_STYLE_ASSIGNMENT( ( #99 ) );
#48 = ADVANCED_FACE( '', ( #100, #101 ), #102, .T. );
#49 = PRESENTATION_STYLE_ASSIGNMENT( ( #103 ) );
#50 = ADVANCED_FACE( '', ( #104, #105 ), #106, .T. );
#51 = PRESENTATION_STYLE_ASSIGNMENT( ( #107 ) );
#52 = ADVANCED_FACE( '', ( #108, #109 ), #110, .T. );
#53 = PRESENTATION_STYLE_ASSIGNMENT( ( #111 ) );
#54 = ADVANCED_FACE( '', ( #112 ), #113, .T. );
#55 = PRESENTATION_STYLE_ASSIGNMENT( ( #114 ) );
#56 = ADVANCED_FACE( '', ( #115, #116 ), #117, .T. );
#57 = PRESENTATION_STYLE_ASSIGNMENT( ( #118 ) );
#58 = ADVANCED_FACE( '', ( #119, #120 ), #121, .F. );
#59 = PRODUCT( '1', '1', 'PART-1-DESC', ( #122 ) );
#60 = PRODUCT_DEFINITION( 'NONE', 'NONE', #123, #2 );
#61 = MANIFOLD_SOLID_BREP( '1', #124 );
#62 = AXIS2_PLACEMENT_3D( '', #125, #126, #127 );
#65 = LENGTH_MEASURE_WITH_UNIT( LENGTH_MEASURE( 1.00000000000000 ), #128 );
#68 = DIMENSIONAL_EXPONENTS( 1.00000000000000, 0.000000000000000, 0.000000000000000, 0.000000000000000, 0.000000000000000, 0.000000000000000, 0.000000000000000 );
#70 = DIMENSIONAL_EXPONENTS( 0.000000000000000, 0.000000000000000, 0.000000000000000, 0.000000000000000, 0.000000000000000, 0.000000000000000, 0.000000000000000 );
#76 = SURFACE_STYLE_USAGE( .BOTH., #129 );
#77 = FACE_OUTER_BOUND( '', #130, .T. );
#78 = FACE_OUTER_BOUND( '', #131, .T. );
#79 = CYLINDRICAL_SURFACE( '', #132, 1.50000000000003 );
#80 = SURFACE_STYLE_USAGE( .BOTH., #133 );
#81 = FACE_OUTER_BOUND( '', #134, .T. );
#82 = PLANE( '', #135 );
#83 = SURFACE_STYLE_USAGE( .BOTH., #136 );
#84 = FACE_OUTER_BOUND( '', #137, .T. );
#85 = FACE_OUTER_BOUND( '', #138, .T. );
#86 = TOROIDAL_SURFACE( '', #139, 1.30000000000005, 0.200000000000000 );
#87 = SURFACE_STYLE_USAGE( .BOTH., #140 );
#88 = FACE_OUTER_BOUND( '', #141, .T. );
#89 = FACE_BOUND( '', #142, .T. );
#90 = PLANE( '', #143 );
#91 = SURFACE_STYLE_USAGE( .BOTH., #144 );
#92 = FACE_OUTER_BOUND( '', #145, .T. );
#93 = FACE_OUTER_BOUND( '', #146, .T. );
#94 = CYLINDRICAL_SURFACE( '', #147, 3.00000000000000 );
#95 = SURFACE_STYLE_USAGE( .BOTH., #148 );
#96 = FACE_OUTER_BOUND( '', #149, .T. );
#97 = FACE_OUTER_BOUND( '', #150, .T. );
#98 = CYLINDRICAL_SURFACE( '', #151, 1.10000000000005 );
#99 = SURFACE_STYLE_USAGE( .BOTH., #152 );
#100 = FACE_OUTER_BOUND( '', #153, .T. );
#101 = FACE_OUTER_BOUND( '', #154, .T. );
#102 = CYLINDRICAL_SURFACE( '', #155, 0.400000000000006 );
#103 = SURFACE_STYLE_USAGE( .BOTH., #156 );
#104 = FACE_BOUND( '', #157, .T. );
#105 = FACE_OUTER_BOUND( '', #158, .T. );
#106 = PLANE( '', #159 );
#107 = SURFACE_STYLE_USAGE( .BOTH., #160 );
#108 = FACE_BOUND( '', #161, .T. );
#109 = FACE_OUTER_BOUND( '', #162, .T. );
#110 = CONICAL_SURFACE( '', #163, 1.50000000000003, 0.785398163397448 );
#111 = SURFACE_STYLE_USAGE( .BOTH., #164 );
#112 = FACE_OUTER_BOUND( '', #165, .T. );
#113 = PLANE( '', #166 );
#114 = SURFACE_STYLE_USAGE( .BOTH., #167 );
#115 = FACE_OUTER_BOUND( '', #168, .T. );
#116 = FACE_BOUND( '', #169, .T. );
#117 = CONICAL_SURFACE( '', #170, 1.12655601659756, 0.521204783494657 );
#118 = SURFACE_STYLE_USAGE( .BOTH., #171 );
#119 = FACE_OUTER_BOUND( '', #172, .T. );
#120 = FACE_OUTER_BOUND( '', #173, .T. );
#121 = TOROIDAL_SURFACE( '', #174, 1.30000000000005, 0.200000000000000 );
#122 = PRODUCT_CONTEXT( '', #22, 'mechanical' );
#123 = PRODUCT_DEFINITION_FORMATION_WITH_SPECIFIED_SOURCE( ' ', 'NONE', #59, .NOT_KNOWN. );
#124 = CLOSED_SHELL( '', ( #36, #52, #38, #42, #44, #50, #54, #40, #46, #48, #58, #56 ) );
#125 = CARTESIAN_POINT( '', ( 0.000000000000000, 0.000000000000000, 0.000000000000000 ) );
#126 = DIRECTION( '', ( 0.000000000000000, 0.000000000000000, 1.00000000000000 ) );
#127 = DIRECTION( '', ( 1.00000000000000, 0.000000000000000, 0.000000000000000 ) );
#128 =  ( LENGTH_UNIT(  )NAMED_UNIT( #68 )SI_UNIT( .MILLI., .METRE. ) );
#129 = SURFACE_SIDE_STYLE( '', ( #176 ) );
#130 = EDGE_LOOP( '', ( #177 ) );
#131 = EDGE_LOOP( '', ( #178 ) );
#132 = AXIS2_PLACEMENT_3D( '', #179, #180, #181 );
#133 = SURFACE_SIDE_STYLE( '', ( #182 ) );
#134 = EDGE_LOOP( '', ( #183 ) );
#135 = AXIS2_PLACEMENT_3D( '', #184, #185, #186 );
#136 = SURFACE_SIDE_STYLE( '', ( #187 ) );
#137 = EDGE_LOOP( '', ( #188 ) );
#138 = EDGE_LOOP( '', ( #189 ) );
#139 = AXIS2_PLACEMENT_3D( '', #190, #191, #192 );
#140 = SURFACE_SIDE_STYLE( '', ( #193 ) );
#141 = EDGE_LOOP( '', ( #194 ) );
#142 = EDGE_LOOP( '', ( #195 ) );
#143 = AXIS2_PLACEMENT_3D( '', #196, #197, #198 );
#144 = SURFACE_SIDE_STYLE( '', ( #199 ) );
#145 = EDGE_LOOP( '', ( #200 ) );
#146 = EDGE_LOOP( '', ( #201 ) );
#147 = AXIS2_PLACEMENT_3D( '', #202, #203, #204 );
#148 = SURFACE_SIDE_STYLE( '', ( #205 ) );
#149 = EDGE_LOOP( '', ( #206 ) );
#150 = EDGE_LOOP( '', ( #207 ) );
#151 = AXIS2_PLACEMENT_3D( '', #208, #209, #210 );
#152 = SURFACE_SIDE_STYLE( '', ( #211 ) );
#153 = EDGE_LOOP( '', ( #212 ) );
#154 = EDGE_LOOP( '', ( #213 ) );
#155 = AXIS2_PLACEMENT_3D( '', #214, #215, #216 );
#156 = SURFACE_SIDE_STYLE( '', ( #217 ) );
#157 = EDGE_LOOP( '', ( #218 ) );
#158 = EDGE_LOOP( '', ( #219 ) );
#159 = AXIS2_PLACEMENT_3D( '', #220, #221, #222 );
#160 = SURFACE_SIDE_STYLE( '', ( #223 ) );
#161 = EDGE_LOOP( '', ( #224 ) );
#162 = EDGE_LOOP( '', ( #225 ) );
#163 = AXIS2_PLACEMENT_3D( '', #226, #227, #228 );
#164 = SURFACE_SIDE_STYLE( '', ( #229 ) );
#165 = EDGE_LOOP( '', ( #230 ) );
#166 = AXIS2_PLACEMENT_3D( '', #231, #232, #233 );
#167 = SURFACE_SIDE_STYLE( '', ( #234 ) );
#168 = EDGE_LOOP( '', ( #235 ) );
#169 = EDGE_LOOP( '', ( #236 ) );
#170 = AXIS2_PLACEMENT_3D( '', #237, #238, #239 );
#171 = SURFACE_SIDE_STYLE( '', ( #240 ) );
#172 = EDGE_LOOP( '', ( #241 ) );
#173 = EDGE_LOOP( '', ( #242 ) );
#174 = AXIS2_PLACEMENT_3D( '', #243, #244, #245 );
#176 = SURFACE_STYLE_FILL_AREA( #246 );
#177 = ORIENTED_EDGE( '', *, *, #247, .T. );
#178 = ORIENTED_EDGE( '', *, *, #248, .F. );
#179 = CARTESIAN_POINT( '', ( 6.93889390390723E-015, -0.500000000000000, 0.000000000000000 ) );
#180 = DIRECTION( '', ( -6.03382078600632E-016, 1.00000000000000, -0.000000000000000 ) );
#181 = DIRECTION( '', ( 1.00000000000000, 6.03382078600632E-016, 0.000000000000000 ) );
#182 = SURFACE_STYLE_FILL_AREA( #249 );
#183 = ORIENTED_EDGE( '', *, *, #250, .T. );
#184 = CARTESIAN_POINT( '', ( -1.50000000000000, 11.0000000000000, 0.000000000000000 ) );
#185 = DIRECTION( '', ( -6.03382078600632E-016, 1.00000000000000, 0.000000000000000 ) );
#186 = DIRECTION( '', ( -1.00000000000000, -6.03382078600632E-016, 0.000000000000000 ) );
#187 = SURFACE_STYLE_FILL_AREA( #251 );
#188 = ORIENTED_EDGE( '', *, *, #252, .T. );
#189 = ORIENTED_EDGE( '', *, *, #253, .F. );
#190 = CARTESIAN_POINT( '', ( 3.18397651993814E-016, 5.19999999999993, 3.90312782094781E-015 ) );
#191 = DIRECTION( '', ( -6.12303176911189E-017, -1.00000000000000, -6.12303176911189E-017 ) );
#192 = DIRECTION( '', ( 0.000000000000000, 6.12303176911189E-017, -1.00000000000000 ) );
#193 = SURFACE_STYLE_FILL_AREA( #254 );
#194 = ORIENTED_EDGE( '', *, *, #255, .T. );
#195 = ORIENTED_EDGE( '', *, *, #256, .F. );
#196 = CARTESIAN_POINT( '', ( -3.00000000000000, -2.00000000000007, 0.000000000000000 ) );
#197 = DIRECTION( '', ( 6.03382078600632E-016, -1.00000000000000, 0.000000000000000 ) );
#198 = DIRECTION( '', ( 1.00000000000000, 6.03382078600632E-016, 0.000000000000000 ) );
#199 = SURFACE_STYLE_FILL_AREA( #257 );
#200 = ORIENTED_EDGE( '', *, *, #258, .T. );
#201 = ORIENTED_EDGE( '', *, *, #255, .F. );
#202 = CARTESIAN_POINT( '', ( 6.93889390390723E-015, -0.500000000000000, 0.000000000000000 ) );
#203 = DIRECTION( '', ( -6.03382078600632E-016, 1.00000000000000, -0.000000000000000 ) );
#204 = DIRECTION( '', ( 1.00000000000000, 6.03382078600632E-016, 0.000000000000000 ) );
#205 = SURFACE_STYLE_FILL_AREA( #259 );
#206 = ORIENTED_EDGE( '', *, *, #260, .T. );
#207 = ORIENTED_EDGE( '', *, *, #252, .F. );
#208 = CARTESIAN_POINT( '', ( -3.67381906146713E-015, -60.0000000000000, 0.000000000000000 ) );
#209 = DIRECTION( '', ( 6.12303176911189E-017, 1.00000000000000, 6.12303176911189E-017 ) );
#210 = DIRECTION( '', ( 0.000000000000000, 6.12303176911189E-017, -1.00000000000000 ) );
#211 = SURFACE_STYLE_FILL_AREA( #261 );
#212 = ORIENTED_EDGE( '', *, *, #256, .T. );
#213 = ORIENTED_EDGE( '', *, *, #262, .F. );
#214 = CARTESIAN_POINT( '', ( 6.93889390390723E-015, -0.500000000000000, 0.000000000000000 ) );
#215 = DIRECTION( '', ( -6.03382078600632E-016, 1.00000000000000, -0.000000000000000 ) );
#216 = DIRECTION( '', ( 1.00000000000000, 6.03382078600632E-016, 0.000000000000000 ) );
#217 = SURFACE_STYLE_FILL_AREA( #263 );
#218 = ORIENTED_EDGE( '', *, *, #253, .T. );
#219 = ORIENTED_EDGE( '', *, *, #258, .F. );
#220 = CARTESIAN_POINT( '', ( -3.00000000000000, 4.99999999999994, 0.000000000000000 ) );
#221 = DIRECTION( '', ( -6.03382078600632E-016, 1.00000000000000, 0.000000000000000 ) );
#222 = DIRECTION( '', ( -1.00000000000000, -6.03382078600632E-016, 0.000000000000000 ) );
#223 = SURFACE_STYLE_FILL_AREA( #264 );
#224 = ORIENTED_EDGE( '', *, *, #250, .F. );
#225 = ORIENTED_EDGE( '', *, *, #247, .F. );
#226 = CARTESIAN_POINT( '', ( 1.20676415720126E-016, 10.8000000000000, 0.000000000000000 ) );
#227 = DIRECTION( '', ( 6.03382078600635E-016, -1.00000000000000, 0.000000000000000 ) );
#228 = DIRECTION( '', ( 1.00000000000000, 6.03382078600635E-016, 0.000000000000000 ) );
#229 = SURFACE_STYLE_FILL_AREA( #265 );
#230 = ORIENTED_EDGE( '', *, *, #262, .T. );
#231 = CARTESIAN_POINT( '', ( -0.400000000000000, -2.50000000000007, 0.000000000000000 ) );
#232 = DIRECTION( '', ( 6.03382078600632E-016, -1.00000000000000, 0.000000000000000 ) );
#233 = DIRECTION( '', ( 1.00000000000000, 6.03382078600632E-016, 0.000000000000000 ) );
#234 = SURFACE_STYLE_FILL_AREA( #266 );
#235 = ORIENTED_EDGE( '', *, *, #248, .T. );
#236 = ORIENTED_EDGE( '', *, *, #267, .F. );
#237 = CARTESIAN_POINT( '', ( 3.42864372299435E-016, 5.59958506224059, 4.01668343376657E-015 ) );
#238 = DIRECTION( '', ( 6.12303176911189E-017, 1.00000000000000, 6.12303176911189E-017 ) );
#239 = DIRECTION( '', ( 0.000000000000000, -6.12303176911189E-017, 1.00000000000000 ) );
#240 = SURFACE_STYLE_FILL_AREA( #268 );
#241 = ORIENTED_EDGE( '', *, *, #267, .T. );
#242 = ORIENTED_EDGE( '', *, *, #260, .F. );
#243 = CARTESIAN_POINT( '', ( 3.36766747301149E-016, 5.49999999999993, 3.90312782094781E-015 ) );
#244 = DIRECTION( '', ( -6.12303176911189E-017, -1.00000000000000, -6.12303176911189E-017 ) );
#245 = DIRECTION( '', ( 0.000000000000000, 6.12303176911189E-017, -1.00000000000000 ) );
#246 = FILL_AREA_STYLE( '', ( #269 ) );
#247 = EDGE_CURVE( '', #270, #270, #271, .F. );
#248 = EDGE_CURVE( '', #272, #272, #273, .T. );
#249 = FILL_AREA_STYLE( '', ( #274 ) );
#250 = EDGE_CURVE( '', #275, #275, #276, .T. );
#251 = FILL_AREA_STYLE( '', ( #277 ) );
#252 = EDGE_CURVE( '', #278, #278, #279, .T. );
#253 = EDGE_CURVE( '', #280, #280, #281, .T. );
#254 = FILL_AREA_STYLE( '', ( #282 ) );
#255 = EDGE_CURVE( '', #283, #283, #284, .T. );
#256 = EDGE_CURVE( '', #285, #285, #286, .T. );
#257 = FILL_AREA_STYLE( '', ( #287 ) );
#258 = EDGE_CURVE( '', #288, #288, #289, .T. );
#259 = FILL_AREA_STYLE( '', ( #290 ) );
#260 = EDGE_CURVE( '', #291, #291, #292, .T. );
#261 = FILL_AREA_STYLE( '', ( #293 ) );
#262 = EDGE_CURVE( '', #294, #294, #295, .T. );
#263 = FILL_AREA_STYLE( '', ( #296 ) );
#264 = FILL_AREA_STYLE( '', ( #297 ) );
#265 = FILL_AREA_STYLE( '', ( #298 ) );
#266 = FILL_AREA_STYLE( '', ( #299 ) );
#267 = EDGE_CURVE( '', #300, #300, #301, .T. );
#268 = FILL_AREA_STYLE( '', ( #302 ) );
#269 = FILL_AREA_STYLE_COLOUR( '', #303 );
#270 = VERTEX_POINT( '', #304 );
#271 = CIRCLE( '', #305, 1.50000000000003 );
#272 = VERTEX_POINT( '', #306 );
#273 = CIRCLE( '', #307, 1.50000000000004 );
#274 = FILL_AREA_STYLE_COLOUR( '', #308 );
#275 = VERTEX_POINT( '', #309 );
#276 = CIRCLE( '', #310, 1.30000000000003 );
#277 = FILL_AREA_STYLE_COLOUR( '', #311 );
#278 = VERTEX_POINT( '', #312 );
#279 = CIRCLE( '', #313, 1.10000000000005 );
#280 = VERTEX_POINT( '', #314 );
#281 = CIRCLE( '', #315, 1.30000000000007 );
#282 = FILL_AREA_STYLE_COLOUR( '', #316 );
#283 = VERTEX_POINT( '', #317 );
#284 = CIRCLE( '', #318, 3.00000000000000 );
#285 = VERTEX_POINT( '', #319 );
#286 = CIRCLE( '', #320, 0.400000000000006 );
#287 = FILL_AREA_STYLE_COLOUR( '', #321 );
#288 = VERTEX_POINT( '', #322 );
#289 = CIRCLE( '', #323, 3.00000000000000 );
#290 = FILL_AREA_STYLE_COLOUR( '', #324 );
#291 = VERTEX_POINT( '', #325 );
#292 = CIRCLE( '', #326, 1.10000000000005 );
#293 = FILL_AREA_STYLE_COLOUR( '', #327 );
#294 = VERTEX_POINT( '', #328 );
#295 = CIRCLE( '', #329, 0.400000000000006 );
#296 = FILL_AREA_STYLE_COLOUR( '', #330 );
#297 = FILL_AREA_STYLE_COLOUR( '', #331 );
#298 = FILL_AREA_STYLE_COLOUR( '', #332 );
#299 = FILL_AREA_STYLE_COLOUR( '', #333 );
#300 = VERTEX_POINT( '', #334 );
#301 = CIRCLE( '', #335, 1.12655601659756 );
#302 = FILL_AREA_STYLE_COLOUR( '', #336 );
#303 = COLOUR_RGB( '', 0.639215707778931, 0.666666686534882, 0.686274528503418 );
#304 = CARTESIAN_POINT( '', ( -1.50000000000003, 10.8000000000000, 0.000000000000000 ) );
#305 = AXIS2_PLACEMENT_3D( '', #337, #338, #339 );
#306 = CARTESIAN_POINT( '', ( 3.82689485569490E-016, 6.25000000000000, -1.50000000000004 ) );
#307 = AXIS2_PLACEMENT_3D( '', #340, #341, #342 );
#308 = COLOUR_RGB( '', 0.643137276172638, 0.678431391716003, 0.698039233684540 );
#309 = CARTESIAN_POINT( '', ( -1.30000000000003, 11.0000000000000, 0.000000000000000 ) );
#310 = AXIS2_PLACEMENT_3D( '', #343, #344, #345 );
#311 = COLOUR_RGB( '', 0.643137276172638, 0.678431391716003, 0.698039233684540 );
#312 = CARTESIAN_POINT( '', ( 3.18397651993814E-016, 5.19999999999993, -1.10000000000005 ) );
#313 = AXIS2_PLACEMENT_3D( '', #346, #347, #348 );
#314 = CARTESIAN_POINT( '', ( 3.06151588455589E-016, 4.99999999999992, -1.30000000000007 ) );
#315 = AXIS2_PLACEMENT_3D( '', #349, #350, #351 );
#316 = COLOUR_RGB( '', 0.643137276172638, 0.678431391716003, 0.698039233684540 );
#317 = CARTESIAN_POINT( '', ( 3.00000000000001, -2.00000000000007, 0.000000000000000 ) );
#318 = AXIS2_PLACEMENT_3D( '', #352, #353, #354 );
#319 = CARTESIAN_POINT( '', ( 0.400000000000013, -2.00000000000007, 0.000000000000000 ) );
#320 = AXIS2_PLACEMENT_3D( '', #355, #356, #357 );
#321 = COLOUR_RGB( '', 0.643137276172638, 0.678431391716003, 0.698039233684540 );
#322 = CARTESIAN_POINT( '', ( 3.00000000000000, 4.99999999999993, 0.000000000000000 ) );
#323 = AXIS2_PLACEMENT_3D( '', #358, #359, #360 );
#324 = COLOUR_RGB( '', 0.643137276172638, 0.678431391716003, 0.698039233684540 );
#325 = CARTESIAN_POINT( '', ( 3.36766747301149E-016, 5.49999999999992, -1.10000000000005 ) );
#326 = AXIS2_PLACEMENT_3D( '', #361, #362, #363 );
#327 = COLOUR_RGB( '', 0.643137276172638, 0.678431391716003, 0.698039233684540 );
#328 = CARTESIAN_POINT( '', ( 0.400000000000014, -2.50000000000007, 0.000000000000000 ) );
#329 = AXIS2_PLACEMENT_3D( '', #364, #365, #366 );
#330 = COLOUR_RGB( '', 0.643137276172638, 0.678431391716003, 0.698039233684540 );
#331 = COLOUR_RGB( '', 0.643137276172638, 0.678431391716003, 0.698039233684540 );
#332 = COLOUR_RGB( '', 0.643137276172638, 0.678431391716003, 0.698039233684540 );
#333 = COLOUR_RGB( '', 0.643137276172638, 0.678431391716003, 0.698039233684540 );
#334 = CARTESIAN_POINT( '', ( 3.42864372299435E-016, 5.59958506224059, -1.12655601659756 ) );
#335 = AXIS2_PLACEMENT_3D( '', #367, #368, #369 );
#336 = COLOUR_RGB( '', 0.643137276172638, 0.678431391716003, 0.698039233684540 );
#337 = CARTESIAN_POINT( '', ( 1.20676415720126E-016, 10.8000000000000, 0.000000000000000 ) );
#338 = DIRECTION( '', ( -6.03382078600635E-016, 1.00000000000000, 0.000000000000000 ) );
#339 = DIRECTION( '', ( -1.00000000000000, -6.03382078600635E-016, 0.000000000000000 ) );
#340 = CARTESIAN_POINT( '', ( 3.82689485569490E-016, 6.25000000000000, 4.05650854703662E-015 ) );
#341 = DIRECTION( '', ( -6.12303176911189E-017, -1.00000000000000, -6.12303176911189E-017 ) );
#342 = DIRECTION( '', ( 0.000000000000000, 6.12303176911189E-017, -1.00000000000000 ) );
#343 = CARTESIAN_POINT( '', ( -1.07241349573450E-030, 11.0000000000000, 0.000000000000000 ) );
#344 = DIRECTION( '', ( -6.03382078600632E-016, 1.00000000000000, 0.000000000000000 ) );
#345 = DIRECTION( '', ( -1.00000000000000, -6.03382078600632E-016, 0.000000000000000 ) );
#346 = CARTESIAN_POINT( '', ( 3.18397651993814E-016, 5.19999999999993, 3.99221671346094E-015 ) );
#347 = DIRECTION( '', ( -6.12303176911189E-017, -1.00000000000000, -6.12303176911189E-017 ) );
#348 = DIRECTION( '', ( 0.000000000000000, 6.12303176911189E-017, -1.00000000000000 ) );
#349 = CARTESIAN_POINT( '', ( 3.06151588455589E-016, 4.99999999999992, 3.97997064992272E-015 ) );
#350 = DIRECTION( '', ( -6.12303176911189E-017, -1.00000000000000, -6.12303176911189E-017 ) );
#351 = DIRECTION( '', ( 0.000000000000000, 6.12303176911189E-017, -1.00000000000000 ) );
#352 = CARTESIAN_POINT( '', ( 7.84396702180822E-015, -2.00000000000007, 0.000000000000000 ) );
#353 = DIRECTION( '', ( 6.03382078600632E-016, -1.00000000000000, 0.000000000000000 ) );
#354 = DIRECTION( '', ( 1.00000000000000, 6.03382078600632E-016, 0.000000000000000 ) );
#355 = CARTESIAN_POINT( '', ( 7.84396702180822E-015, -2.00000000000007, 0.000000000000000 ) );
#356 = DIRECTION( '', ( 6.03382078600632E-016, -1.00000000000000, 0.000000000000000 ) );
#357 = DIRECTION( '', ( 1.00000000000000, 6.03382078600632E-016, 0.000000000000000 ) );
#358 = CARTESIAN_POINT( '', ( 3.62029247160379E-015, 4.99999999999993, 0.000000000000000 ) );
#359 = DIRECTION( '', ( 6.03382078600632E-016, -1.00000000000000, 0.000000000000000 ) );
#360 = DIRECTION( '', ( 1.00000000000000, 6.03382078600632E-016, 0.000000000000000 ) );
#361 = CARTESIAN_POINT( '', ( 3.36766747301149E-016, 5.49999999999992, 4.01058580876828E-015 ) );
#362 = DIRECTION( '', ( -6.12303176911189E-017, -1.00000000000000, -6.12303176911189E-017 ) );
#363 = DIRECTION( '', ( 0.000000000000000, 6.12303176911189E-017, -1.00000000000000 ) );
#364 = CARTESIAN_POINT( '', ( 8.14565806110854E-015, -2.50000000000007, 0.000000000000000 ) );
#365 = DIRECTION( '', ( 6.03382078600632E-016, -1.00000000000000, 0.000000000000000 ) );
#366 = DIRECTION( '', ( 1.00000000000000, 6.03382078600632E-016, 0.000000000000000 ) );
#367 = CARTESIAN_POINT( '', ( 3.42864372299435E-016, 5.59958506224059, 4.01668343376657E-015 ) );
#368 = DIRECTION( '', ( -6.12303176911189E-017, -1.00000000000000, -6.12303176911189E-017 ) );
#369 = DIRECTION( '', ( 0.000000000000000, 6.12303176911189E-017, -1.00000000000000 ) );
ENDSEC;
END-ISO-10303-21;
