ISO-10303-21;
HEADER;
FILE_DESCRIPTION( ( 'Unknown' ), '1' );
FILE_NAME( '//s-e-file01.we-group.com/data/User_Groups_Only/17_EMC_Product_&_Development/Article_Master/eiCan/Assembly/As_SMRA/Master_Data/01_CAD_drawing/1_Drawing/7466300/Released_Data/7466300.stp', 'Unknown', ( 'Unknown' ), ( 'Unknown' ), 'PSStep 18.0.17', 'Unknown', '  ' );
FILE_SCHEMA( ( 'AUTOMOTIVE_DESIGN { 1 0 10303 214 1 1 1 1 }' ) );
ENDSEC;
DATA;
#1 = MECHANICAL_DESIGN_GEOMETRIC_PRESENTATION_REPRESENTATION( ' ', ( #10, #11, #12, #13, #14, #15, #16, #17, #18, #19, #20, #21, #22 ), #6 );
#2 = PRODUCT_DEFINITION_CONTEXT( '', #23, 'design' );
#3 = APPLICATION_PROTOCOL_DEFINITION( 'international standard', 'automotive_design', 2001, #23 );
#4 = PRODUCT_CATEGORY_RELATIONSHIP( 'NONE', 'NONE', #24, #25 );
#5 = SHAPE_DEFINITION_REPRESENTATION( #26, #27 );
#6 =  ( GEOMETRIC_REPRESENTATION_CONTEXT( 3 )GLOBAL_UNCERTAINTY_ASSIGNED_CONTEXT( ( #30 ) )GLOBAL_UNIT_ASSIGNED_CONTEXT( ( #32, #33, #34 ) )REPRESENTATION_CONTEXT( 'NONE', 'WORKSPACE' ) );
#10 = STYLED_ITEM( '', ( #36 ), #37 );
#11 = STYLED_ITEM( '', ( #38 ), #39 );
#12 = STYLED_ITEM( '', ( #40 ), #41 );
#13 = STYLED_ITEM( '', ( #42 ), #43 );
#14 = STYLED_ITEM( '', ( #44 ), #45 );
#15 = STYLED_ITEM( '', ( #46 ), #47 );
#16 = STYLED_ITEM( '', ( #48 ), #49 );
#17 = STYLED_ITEM( '', ( #50 ), #51 );
#18 = STYLED_ITEM( '', ( #52 ), #53 );
#19 = STYLED_ITEM( '', ( #54 ), #55 );
#20 = STYLED_ITEM( '', ( #56 ), #57 );
#21 = STYLED_ITEM( '', ( #58 ), #59 );
#22 = STYLED_ITEM( '', ( #60 ), #61 );
#23 = APPLICATION_CONTEXT( 'core data for automotive mechanical design processes' );
#24 = PRODUCT_CATEGORY( 'part', 'NONE' );
#25 = PRODUCT_RELATED_PRODUCT_CATEGORY( 'detail', ' ', ( #62 ) );
#26 = PRODUCT_DEFINITION_SHAPE( 'NONE', 'NONE', #63 );
#27 = ADVANCED_BREP_SHAPE_REPRESENTATION( '1', ( #64, #65 ), #6 );
#30 = UNCERTAINTY_MEASURE_WITH_UNIT( LENGTH_MEASURE( 0.00100000000000000 ), #32, '', '' );
#32 =  ( CONVERSION_BASED_UNIT( 'MILLIMETRE', #68 )LENGTH_UNIT(  )NAMED_UNIT( #71 ) );
#33 =  ( NAMED_UNIT( #73 )PLANE_ANGLE_UNIT(  )SI_UNIT( $, .RADIAN. ) );
#34 =  ( NAMED_UNIT( #73 )SI_UNIT( $, .STERADIAN. )SOLID_ANGLE_UNIT(  ) );
#36 = PRESENTATION_STYLE_ASSIGNMENT( ( #79 ) );
#37 = ADVANCED_FACE( '', ( #80 ), #81, .F. );
#38 = PRESENTATION_STYLE_ASSIGNMENT( ( #82 ) );
#39 = ADVANCED_FACE( '', ( #83, #84 ), #85, .T. );
#40 = PRESENTATION_STYLE_ASSIGNMENT( ( #86 ) );
#41 = ADVANCED_FACE( '', ( #87 ), #88, .F. );
#42 = PRESENTATION_STYLE_ASSIGNMENT( ( #89 ) );
#43 = ADVANCED_FACE( '', ( #90, #91 ), #92, .F. );
#44 = PRESENTATION_STYLE_ASSIGNMENT( ( #93 ) );
#45 = ADVANCED_FACE( '', ( #94 ), #95, .T. );
#46 = PRESENTATION_STYLE_ASSIGNMENT( ( #96 ) );
#47 = ADVANCED_FACE( '', ( #97 ), #98, .T. );
#48 = PRESENTATION_STYLE_ASSIGNMENT( ( #99 ) );
#49 = ADVANCED_FACE( '', ( #100 ), #101, .T. );
#50 = PRESENTATION_STYLE_ASSIGNMENT( ( #102 ) );
#51 = ADVANCED_FACE( '', ( #103 ), #104, .T. );
#52 = PRESENTATION_STYLE_ASSIGNMENT( ( #105 ) );
#53 = ADVANCED_FACE( '', ( #106 ), #107, .T. );
#54 = PRESENTATION_STYLE_ASSIGNMENT( ( #108 ) );
#55 = ADVANCED_FACE( '', ( #109, #110 ), #111, .F. );
#56 = PRESENTATION_STYLE_ASSIGNMENT( ( #112 ) );
#57 = ADVANCED_FACE( '', ( #113, #114 ), #115, .F. );
#58 = PRESENTATION_STYLE_ASSIGNMENT( ( #116 ) );
#59 = ADVANCED_FACE( '', ( #117, #118 ), #119, .F. );
#60 = PRESENTATION_STYLE_ASSIGNMENT( ( #120 ) );
#61 = ADVANCED_FACE( '', ( #121 ), #122, .T. );
#62 = PRODUCT( '1', '1', 'PART-1-DESC', ( #123 ) );
#63 = PRODUCT_DEFINITION( 'NONE', 'NONE', #124, #2 );
#64 = MANIFOLD_SOLID_BREP( '1', #125 );
#65 = AXIS2_PLACEMENT_3D( '', #126, #127, #128 );
#68 = LENGTH_MEASURE_WITH_UNIT( LENGTH_MEASURE( 1.00000000000000 ), #129 );
#71 = DIMENSIONAL_EXPONENTS( 1.00000000000000, 0.000000000000000, 0.000000000000000, 0.000000000000000, 0.000000000000000, 0.000000000000000, 0.000000000000000 );
#73 = DIMENSIONAL_EXPONENTS( 0.000000000000000, 0.000000000000000, 0.000000000000000, 0.000000000000000, 0.000000000000000, 0.000000000000000, 0.000000000000000 );
#79 = SURFACE_STYLE_USAGE( .BOTH., #130 );
#80 = FACE_OUTER_BOUND( '', #131, .T. );
#81 = CYLINDRICAL_SURFACE( '', #132, 50.0000000000000 );
#82 = SURFACE_STYLE_USAGE( .BOTH., #133 );
#83 = FACE_OUTER_BOUND( '', #134, .T. );
#84 = FACE_BOUND( '', #135, .T. );
#85 = PLANE( '', #136 );
#86 = SURFACE_STYLE_USAGE( .BOTH., #137 );
#87 = FACE_OUTER_BOUND( '', #138, .T. );
#88 = CYLINDRICAL_SURFACE( '', #139, 50.0000000000000 );
#89 = SURFACE_STYLE_USAGE( .BOTH., #140 );
#90 = FACE_BOUND( '', #141, .T. );
#91 = FACE_OUTER_BOUND( '', #142, .T. );
#92 = CONICAL_SURFACE( '', #143, 1.85000000000000, 0.785398163400000 );
#93 = SURFACE_STYLE_USAGE( .BOTH., #144 );
#94 = FACE_OUTER_BOUND( '', #145, .T. );
#95 = PLANE( '', #146 );
#96 = SURFACE_STYLE_USAGE( .BOTH., #147 );
#97 = FACE_OUTER_BOUND( '', #148, .T. );
#98 = PLANE( '', #149 );
#99 = SURFACE_STYLE_USAGE( .BOTH., #150 );
#100 = FACE_OUTER_BOUND( '', #151, .T. );
#101 = PLANE( '', #152 );
#102 = SURFACE_STYLE_USAGE( .BOTH., #153 );
#103 = FACE_OUTER_BOUND( '', #154, .T. );
#104 = PLANE( '', #155 );
#105 = SURFACE_STYLE_USAGE( .BOTH., #156 );
#106 = FACE_OUTER_BOUND( '', #157, .T. );
#107 = PLANE( '', #158 );
#108 = SURFACE_STYLE_USAGE( .BOTH., #159 );
#109 = FACE_OUTER_BOUND( '', #160, .T. );
#110 = FACE_OUTER_BOUND( '', #161, .T. );
#111 = CYLINDRICAL_SURFACE( '', #162, 1.65000000000000 );
#112 = SURFACE_STYLE_USAGE( .BOTH., #163 );
#113 = FACE_BOUND( '', #164, .T. );
#114 = FACE_OUTER_BOUND( '', #165, .T. );
#115 = PLANE( '', #166 );
#116 = SURFACE_STYLE_USAGE( .BOTH., #167 );
#117 = FACE_BOUND( '', #168, .T. );
#118 = FACE_OUTER_BOUND( '', #169, .T. );
#119 = CONICAL_SURFACE( '', #170, 1.85000000000000, 0.785398163400000 );
#120 = SURFACE_STYLE_USAGE( .BOTH., #171 );
#121 = FACE_OUTER_BOUND( '', #172, .T. );
#122 = PLANE( '', #173 );
#123 = PRODUCT_CONTEXT( '', #23, 'mechanical' );
#124 = PRODUCT_DEFINITION_FORMATION_WITH_SPECIFIED_SOURCE( ' ', 'NONE', #62, .NOT_KNOWN. );
#125 = CLOSED_SHELL( '', ( #51, #37, #41, #45, #61, #47, #53, #57, #39, #55, #43, #59, #49 ) );
#126 = CARTESIAN_POINT( '', ( 0.000000000000000, 0.000000000000000, 0.000000000000000 ) );
#127 = DIRECTION( '', ( 0.000000000000000, 0.000000000000000, 1.00000000000000 ) );
#128 = DIRECTION( '', ( 1.00000000000000, 0.000000000000000, 0.000000000000000 ) );
#129 =  ( LENGTH_UNIT(  )NAMED_UNIT( #71 )SI_UNIT( .MILLI., .METRE. ) );
#130 = SURFACE_SIDE_STYLE( '', ( #175 ) );
#131 = EDGE_LOOP( '', ( #176, #177, #178, #179 ) );
#132 = AXIS2_PLACEMENT_3D( '', #180, #181, #182 );
#133 = SURFACE_SIDE_STYLE( '', ( #183 ) );
#134 = EDGE_LOOP( '', ( #184, #185, #186, #187 ) );
#135 = EDGE_LOOP( '', ( #188 ) );
#136 = AXIS2_PLACEMENT_3D( '', #189, #190, #191 );
#137 = SURFACE_SIDE_STYLE( '', ( #192 ) );
#138 = EDGE_LOOP( '', ( #193, #194, #195, #196 ) );
#139 = AXIS2_PLACEMENT_3D( '', #197, #198, #199 );
#140 = SURFACE_SIDE_STYLE( '', ( #200 ) );
#141 = EDGE_LOOP( '', ( #201 ) );
#142 = EDGE_LOOP( '', ( #202 ) );
#143 = AXIS2_PLACEMENT_3D( '', #203, #204, #205 );
#144 = SURFACE_SIDE_STYLE( '', ( #206 ) );
#145 = EDGE_LOOP( '', ( #207, #208, #209, #210 ) );
#146 = AXIS2_PLACEMENT_3D( '', #211, #212, #213 );
#147 = SURFACE_SIDE_STYLE( '', ( #214 ) );
#148 = EDGE_LOOP( '', ( #215, #216, #217, #218, #219, #220, #221, #222 ) );
#149 = AXIS2_PLACEMENT_3D( '', #223, #224, #225 );
#150 = SURFACE_SIDE_STYLE( '', ( #226 ) );
#151 = EDGE_LOOP( '', ( #227, #228, #229, #230 ) );
#152 = AXIS2_PLACEMENT_3D( '', #231, #232, #233 );
#153 = SURFACE_SIDE_STYLE( '', ( #234 ) );
#154 = EDGE_LOOP( '', ( #235, #236, #237, #238 ) );
#155 = AXIS2_PLACEMENT_3D( '', #239, #240, #241 );
#156 = SURFACE_SIDE_STYLE( '', ( #242 ) );
#157 = EDGE_LOOP( '', ( #243, #244, #245, #246 ) );
#158 = AXIS2_PLACEMENT_3D( '', #247, #248, #249 );
#159 = SURFACE_SIDE_STYLE( '', ( #250 ) );
#160 = EDGE_LOOP( '', ( #251 ) );
#161 = EDGE_LOOP( '', ( #252 ) );
#162 = AXIS2_PLACEMENT_3D( '', #253, #254, #255 );
#163 = SURFACE_SIDE_STYLE( '', ( #256 ) );
#164 = EDGE_LOOP( '', ( #257 ) );
#165 = EDGE_LOOP( '', ( #258, #259, #260, #261 ) );
#166 = AXIS2_PLACEMENT_3D( '', #262, #263, #264 );
#167 = SURFACE_SIDE_STYLE( '', ( #265 ) );
#168 = EDGE_LOOP( '', ( #266 ) );
#169 = EDGE_LOOP( '', ( #267 ) );
#170 = AXIS2_PLACEMENT_3D( '', #268, #269, #270 );
#171 = SURFACE_SIDE_STYLE( '', ( #271 ) );
#172 = EDGE_LOOP( '', ( #272, #273, #274, #275, #276, #277, #278, #279 ) );
#173 = AXIS2_PLACEMENT_3D( '', #280, #281, #282 );
#175 = SURFACE_STYLE_FILL_AREA( #283 );
#176 = ORIENTED_EDGE( '', *, *, #284, .T. );
#177 = ORIENTED_EDGE( '', *, *, #285, .F. );
#178 = ORIENTED_EDGE( '', *, *, #286, .F. );
#179 = ORIENTED_EDGE( '', *, *, #287, .T. );
#180 = CARTESIAN_POINT( '', ( 0.000000000000000, 3.00000000000000, 54.4179605110181 ) );
#181 = DIRECTION( '', ( -0.000000000000000, -1.00000000000000, -0.000000000000000 ) );
#182 = DIRECTION( '', ( 0.000000000000000, 0.000000000000000, 1.00000000000000 ) );
#183 = SURFACE_STYLE_FILL_AREA( #288 );
#184 = ORIENTED_EDGE( '', *, *, #284, .F. );
#185 = ORIENTED_EDGE( '', *, *, #289, .T. );
#186 = ORIENTED_EDGE( '', *, *, #290, .T. );
#187 = ORIENTED_EDGE( '', *, *, #291, .T. );
#188 = ORIENTED_EDGE( '', *, *, #292, .T. );
#189 = CARTESIAN_POINT( '', ( 0.000000000000000, 3.50000000000000, 0.000000000000000 ) );
#190 = DIRECTION( '', ( 0.000000000000000, 1.00000000000000, 0.000000000000000 ) );
#191 = DIRECTION( '', ( 0.000000000000000, 0.000000000000000, 1.00000000000000 ) );
#192 = SURFACE_STYLE_FILL_AREA( #293 );
#193 = ORIENTED_EDGE( '', *, *, #294, .T. );
#194 = ORIENTED_EDGE( '', *, *, #295, .F. );
#195 = ORIENTED_EDGE( '', *, *, #296, .F. );
#196 = ORIENTED_EDGE( '', *, *, #297, .T. );
#197 = CARTESIAN_POINT( '', ( 0.000000000000000, -3.00000000000000, 54.4179605110181 ) );
#198 = DIRECTION( '', ( -0.000000000000000, 1.00000000000000, -0.000000000000000 ) );
#199 = DIRECTION( '', ( 0.000000000000000, 0.000000000000000, -1.00000000000000 ) );
#200 = SURFACE_STYLE_FILL_AREA( #298 );
#201 = ORIENTED_EDGE( '', *, *, #299, .F. );
#202 = ORIENTED_EDGE( '', *, *, #300, .F. );
#203 = CARTESIAN_POINT( '', ( 3.69843333342503E-016, -3.50000000000000, 1.98000000000000 ) );
#204 = DIRECTION( '', ( -0.000000000000000, -1.00000000000000, 0.000000000000000 ) );
#205 = DIRECTION( '', ( 1.00000000000000, 0.000000000000000, 0.000000000000000 ) );
#206 = SURFACE_STYLE_FILL_AREA( #301 );
#207 = ORIENTED_EDGE( '', *, *, #302, .T. );
#208 = ORIENTED_EDGE( '', *, *, #303, .F. );
#209 = ORIENTED_EDGE( '', *, *, #304, .F. );
#210 = ORIENTED_EDGE( '', *, *, #305, .F. );
#211 = CARTESIAN_POINT( '', ( -2.49000000000000, -3.50000000000000, 4.98000000000000 ) );
#212 = DIRECTION( '', ( -1.74169023692450E-016, 0.000000000000000, 1.00000000000000 ) );
#213 = DIRECTION( '', ( 1.00000000000000, 0.000000000000000, 1.74169023692450E-016 ) );
#214 = SURFACE_STYLE_FILL_AREA( #306 );
#215 = ORIENTED_EDGE( '', *, *, #285, .T. );
#216 = ORIENTED_EDGE( '', *, *, #291, .F. );
#217 = ORIENTED_EDGE( '', *, *, #307, .F. );
#218 = ORIENTED_EDGE( '', *, *, #308, .T. );
#219 = ORIENTED_EDGE( '', *, *, #297, .F. );
#220 = ORIENTED_EDGE( '', *, *, #309, .F. );
#221 = ORIENTED_EDGE( '', *, *, #304, .T. );
#222 = ORIENTED_EDGE( '', *, *, #310, .F. );
#223 = CARTESIAN_POINT( '', ( -2.49000000000000, -3.50000000000000, -9.16648129161794E-016 ) );
#224 = DIRECTION( '', ( -1.00000000000000, 0.000000000000000, 0.000000000000000 ) );
#225 = DIRECTION( '', ( 0.000000000000000, 0.000000000000000, 1.00000000000000 ) );
#226 = SURFACE_STYLE_FILL_AREA( #311 );
#227 = ORIENTED_EDGE( '', *, *, #310, .T. );
#228 = ORIENTED_EDGE( '', *, *, #303, .T. );
#229 = ORIENTED_EDGE( '', *, *, #312, .T. );
#230 = ORIENTED_EDGE( '', *, *, #286, .T. );
#231 = CARTESIAN_POINT( '', ( 0.000000000000000, 3.00000000000000, 54.4179605110181 ) );
#232 = DIRECTION( '', ( 0.000000000000000, 1.00000000000000, 0.000000000000000 ) );
#233 = DIRECTION( '', ( 0.000000000000000, 0.000000000000000, 1.00000000000000 ) );
#234 = SURFACE_STYLE_FILL_AREA( #313 );
#235 = ORIENTED_EDGE( '', *, *, #305, .T. );
#236 = ORIENTED_EDGE( '', *, *, #309, .T. );
#237 = ORIENTED_EDGE( '', *, *, #296, .T. );
#238 = ORIENTED_EDGE( '', *, *, #314, .T. );
#239 = CARTESIAN_POINT( '', ( 0.000000000000000, -3.00000000000000, 54.4179605110181 ) );
#240 = DIRECTION( '', ( 0.000000000000000, -1.00000000000000, 0.000000000000000 ) );
#241 = DIRECTION( '', ( 0.000000000000000, 0.000000000000000, -1.00000000000000 ) );
#242 = SURFACE_STYLE_FILL_AREA( #315 );
#243 = ORIENTED_EDGE( '', *, *, #290, .F. );
#244 = ORIENTED_EDGE( '', *, *, #316, .F. );
#245 = ORIENTED_EDGE( '', *, *, #317, .T. );
#246 = ORIENTED_EDGE( '', *, *, #307, .T. );
#247 = CARTESIAN_POINT( '', ( 2.49000000000000, -3.50000000000000, -3.06774023186409E-016 ) );
#248 = DIRECTION( '', ( 1.22464679914736E-016, 0.000000000000000, -1.00000000000000 ) );
#249 = DIRECTION( '', ( -1.00000000000000, 0.000000000000000, -1.22464679914736E-016 ) );
#250 = SURFACE_STYLE_FILL_AREA( #318 );
#251 = ORIENTED_EDGE( '', *, *, #319, .T. );
#252 = ORIENTED_EDGE( '', *, *, #299, .T. );
#253 = CARTESIAN_POINT( '', ( 3.69843333342503E-016, -3.50000000000000, 1.98000000000000 ) );
#254 = DIRECTION( '', ( -0.000000000000000, -1.00000000000000, -0.000000000000000 ) );
#255 = DIRECTION( '', ( 0.000000000000000, 0.000000000000000, -1.00000000000000 ) );
#256 = SURFACE_STYLE_FILL_AREA( #320 );
#257 = ORIENTED_EDGE( '', *, *, #300, .T. );
#258 = ORIENTED_EDGE( '', *, *, #321, .F. );
#259 = ORIENTED_EDGE( '', *, *, #294, .F. );
#260 = ORIENTED_EDGE( '', *, *, #308, .F. );
#261 = ORIENTED_EDGE( '', *, *, #317, .F. );
#262 = CARTESIAN_POINT( '', ( 0.000000000000000, -3.50000000000000, 0.000000000000000 ) );
#263 = DIRECTION( '', ( 0.000000000000000, 1.00000000000000, 0.000000000000000 ) );
#264 = DIRECTION( '', ( 0.000000000000000, 0.000000000000000, 1.00000000000000 ) );
#265 = SURFACE_STYLE_FILL_AREA( #322 );
#266 = ORIENTED_EDGE( '', *, *, #319, .F. );
#267 = ORIENTED_EDGE( '', *, *, #292, .F. );
#268 = CARTESIAN_POINT( '', ( 3.69843333342503E-016, 3.50000000000000, 1.98000000000000 ) );
#269 = DIRECTION( '', ( -0.000000000000000, 1.00000000000000, -0.000000000000000 ) );
#270 = DIRECTION( '', ( 1.00000000000000, 0.000000000000000, 0.000000000000000 ) );
#271 = SURFACE_STYLE_FILL_AREA( #323 );
#272 = ORIENTED_EDGE( '', *, *, #287, .F. );
#273 = ORIENTED_EDGE( '', *, *, #312, .F. );
#274 = ORIENTED_EDGE( '', *, *, #302, .F. );
#275 = ORIENTED_EDGE( '', *, *, #314, .F. );
#276 = ORIENTED_EDGE( '', *, *, #295, .T. );
#277 = ORIENTED_EDGE( '', *, *, #321, .T. );
#278 = ORIENTED_EDGE( '', *, *, #316, .T. );
#279 = ORIENTED_EDGE( '', *, *, #289, .F. );
#280 = CARTESIAN_POINT( '', ( 2.49000000000000, -3.50000000000000, 4.98000000000000 ) );
#281 = DIRECTION( '', ( 1.00000000000000, 0.000000000000000, 0.000000000000000 ) );
#282 = DIRECTION( '', ( 0.000000000000000, 0.000000000000000, -1.00000000000000 ) );
#283 = FILL_AREA_STYLE( '', ( #324 ) );
#284 = EDGE_CURVE( '', #325, #326, #327, .T. );
#285 = EDGE_CURVE( '', #328, #326, #329, .T. );
#286 = EDGE_CURVE( '', #330, #328, #331, .T. );
#287 = EDGE_CURVE( '', #330, #325, #332, .T. );
#288 = FILL_AREA_STYLE( '', ( #333 ) );
#289 = EDGE_CURVE( '', #325, #334, #335, .T. );
#290 = EDGE_CURVE( '', #334, #336, #337, .T. );
#291 = EDGE_CURVE( '', #336, #326, #338, .T. );
#292 = EDGE_CURVE( '', #339, #339, #340, .T. );
#293 = FILL_AREA_STYLE( '', ( #341 ) );
#294 = EDGE_CURVE( '', #342, #343, #344, .T. );
#295 = EDGE_CURVE( '', #345, #343, #346, .T. );
#296 = EDGE_CURVE( '', #347, #345, #348, .T. );
#297 = EDGE_CURVE( '', #347, #342, #349, .T. );
#298 = FILL_AREA_STYLE( '', ( #350 ) );
#299 = EDGE_CURVE( '', #351, #351, #352, .T. );
#300 = EDGE_CURVE( '', #353, #353, #354, .T. );
#301 = FILL_AREA_STYLE( '', ( #355 ) );
#302 = EDGE_CURVE( '', #356, #357, #358, .T. );
#303 = EDGE_CURVE( '', #359, #357, #360, .T. );
#304 = EDGE_CURVE( '', #361, #359, #362, .T. );
#305 = EDGE_CURVE( '', #356, #361, #363, .T. );
#306 = FILL_AREA_STYLE( '', ( #364 ) );
#307 = EDGE_CURVE( '', #365, #336, #366, .T. );
#308 = EDGE_CURVE( '', #365, #342, #367, .T. );
#309 = EDGE_CURVE( '', #361, #347, #368, .T. );
#310 = EDGE_CURVE( '', #328, #359, #369, .T. );
#311 = FILL_AREA_STYLE( '', ( #370 ) );
#312 = EDGE_CURVE( '', #357, #330, #371, .T. );
#313 = FILL_AREA_STYLE( '', ( #372 ) );
#314 = EDGE_CURVE( '', #345, #356, #373, .T. );
#315 = FILL_AREA_STYLE( '', ( #374 ) );
#316 = EDGE_CURVE( '', #375, #334, #376, .T. );
#317 = EDGE_CURVE( '', #375, #365, #377, .T. );
#318 = FILL_AREA_STYLE( '', ( #378 ) );
#319 = EDGE_CURVE( '', #379, #379, #380, .T. );
#320 = FILL_AREA_STYLE( '', ( #381 ) );
#321 = EDGE_CURVE( '', #343, #375, #382, .T. );
#322 = FILL_AREA_STYLE( '', ( #383 ) );
#323 = FILL_AREA_STYLE( '', ( #384 ) );
#324 = FILL_AREA_STYLE_COLOUR( '', #385 );
#325 = VERTEX_POINT( '', #386 );
#326 = VERTEX_POINT( '', #387 );
#327 = CIRCLE( '', #388, 50.0000000000000 );
#328 = VERTEX_POINT( '', #389 );
#329 = LINE( '', #390, #391 );
#330 = VERTEX_POINT( '', #392 );
#331 = CIRCLE( '', #393, 50.0000000000000 );
#332 = LINE( '', #394, #395 );
#333 = FILL_AREA_STYLE_COLOUR( '', #396 );
#334 = VERTEX_POINT( '', #397 );
#335 = LINE( '', #398, #399 );
#336 = VERTEX_POINT( '', #400 );
#337 = LINE( '', #401, #402 );
#338 = LINE( '', #403, #404 );
#339 = VERTEX_POINT( '', #405 );
#340 = CIRCLE( '', #406, 1.85000000000000 );
#341 = FILL_AREA_STYLE_COLOUR( '', #407 );
#342 = VERTEX_POINT( '', #408 );
#343 = VERTEX_POINT( '', #409 );
#344 = CIRCLE( '', #410, 50.0000000000000 );
#345 = VERTEX_POINT( '', #411 );
#346 = LINE( '', #412, #413 );
#347 = VERTEX_POINT( '', #414 );
#348 = CIRCLE( '', #415, 50.0000000000000 );
#349 = LINE( '', #416, #417 );
#350 = FILL_AREA_STYLE_COLOUR( '', #418 );
#351 = VERTEX_POINT( '', #419 );
#352 = CIRCLE( '', #420, 1.65000000000000 );
#353 = VERTEX_POINT( '', #421 );
#354 = CIRCLE( '', #422, 1.85000000000000 );
#355 = FILL_AREA_STYLE_COLOUR( '', #423 );
#356 = VERTEX_POINT( '', #424 );
#357 = VERTEX_POINT( '', #425 );
#358 = LINE( '', #426, #427 );
#359 = VERTEX_POINT( '', #428 );
#360 = LINE( '', #429, #430 );
#361 = VERTEX_POINT( '', #431 );
#362 = LINE( '', #432, #433 );
#363 = LINE( '', #434, #435 );
#364 = FILL_AREA_STYLE_COLOUR( '', #436 );
#365 = VERTEX_POINT( '', #437 );
#366 = LINE( '', #438, #439 );
#367 = LINE( '', #440, #441 );
#368 = LINE( '', #442, #443 );
#369 = LINE( '', #444, #445 );
#370 = FILL_AREA_STYLE_COLOUR( '', #446 );
#371 = LINE( '', #447, #448 );
#372 = FILL_AREA_STYLE_COLOUR( '', #449 );
#373 = LINE( '', #450, #451 );
#374 = FILL_AREA_STYLE_COLOUR( '', #452 );
#375 = VERTEX_POINT( '', #453 );
#376 = LINE( '', #454, #455 );
#377 = LINE( '', #456, #457 );
#378 = FILL_AREA_STYLE_COLOUR( '', #458 );
#379 = VERTEX_POINT( '', #459 );
#380 = CIRCLE( '', #460, 1.65000000000000 );
#381 = FILL_AREA_STYLE_COLOUR( '', #461 );
#382 = LINE( '', #462, #463 );
#383 = FILL_AREA_STYLE_COLOUR( '', #464 );
#384 = FILL_AREA_STYLE_COLOUR( '', #465 );
#385 = COLOUR_RGB( '', 0.505882382400000, 0.529411792800000, 0.549019634700000 );
#386 = CARTESIAN_POINT( '', ( 2.49000000000000, 3.50000000000000, 4.48000000000000 ) );
#387 = CARTESIAN_POINT( '', ( -2.49000000000000, 3.50000000000000, 4.48000000000000 ) );
#388 = AXIS2_PLACEMENT_3D( '', #466, #467, #468 );
#389 = CARTESIAN_POINT( '', ( -2.49000000000000, 3.00000000000000, 4.48000000000000 ) );
#390 = CARTESIAN_POINT( '', ( -2.49000000000000, 3.00000000000000, 4.48000000000000 ) );
#391 = VECTOR( '', #469, 1000.00000000000 );
#392 = CARTESIAN_POINT( '', ( 2.49000000000000, 3.00000000000000, 4.48000000000000 ) );
#393 = AXIS2_PLACEMENT_3D( '', #470, #471, #472 );
#394 = CARTESIAN_POINT( '', ( 2.49000000000000, 3.00000000000000, 4.48000000000000 ) );
#395 = VECTOR( '', #473, 1000.00000000000 );
#396 = COLOUR_RGB( '', 0.505882382400000, 0.529411792800000, 0.549019634700000 );
#397 = CARTESIAN_POINT( '', ( 2.49000000000000, 3.50000000000000, -3.06774023186409E-016 ) );
#398 = CARTESIAN_POINT( '', ( 2.49000000000000, 3.50000000000000, 4.98000000000000 ) );
#399 = VECTOR( '', #474, 1000.00000000000 );
#400 = CARTESIAN_POINT( '', ( -2.49000000000000, 3.50000000000000, -9.16648129161794E-016 ) );
#401 = CARTESIAN_POINT( '', ( 2.49000000000000, 3.50000000000000, -3.06774023186409E-016 ) );
#402 = VECTOR( '', #475, 1000.00000000000 );
#403 = CARTESIAN_POINT( '', ( -2.49000000000000, 3.50000000000000, -9.16648129161794E-016 ) );
#404 = VECTOR( '', #476, 1000.00000000000 );
#405 = CARTESIAN_POINT( '', ( 1.85000000000000, 3.50000000000000, 1.98000000000000 ) );
#406 = AXIS2_PLACEMENT_3D( '', #477, #478, #479 );
#407 = COLOUR_RGB( '', 0.505882382400000, 0.529411792800000, 0.549019634700000 );
#408 = CARTESIAN_POINT( '', ( -2.49000000000000, -3.50000000000000, 4.48000000000000 ) );
#409 = CARTESIAN_POINT( '', ( 2.49000000000000, -3.50000000000000, 4.48000000000000 ) );
#410 = AXIS2_PLACEMENT_3D( '', #480, #481, #482 );
#411 = CARTESIAN_POINT( '', ( 2.49000000000000, -3.00000000000000, 4.48000000000000 ) );
#412 = CARTESIAN_POINT( '', ( 2.49000000000000, -3.00000000000000, 4.48000000000000 ) );
#413 = VECTOR( '', #483, 1000.00000000000 );
#414 = CARTESIAN_POINT( '', ( -2.49000000000000, -3.00000000000000, 4.48000000000000 ) );
#415 = AXIS2_PLACEMENT_3D( '', #484, #485, #486 );
#416 = CARTESIAN_POINT( '', ( -2.49000000000000, -3.00000000000000, 4.48000000000000 ) );
#417 = VECTOR( '', #487, 1000.00000000000 );
#418 = COLOUR_RGB( '', 0.505882382400000, 0.529411792800000, 0.549019634700000 );
#419 = CARTESIAN_POINT( '', ( 3.69843333342503E-016, -3.30000000000000, 0.330000000000000 ) );
#420 = AXIS2_PLACEMENT_3D( '', #488, #489, #490 );
#421 = CARTESIAN_POINT( '', ( 1.85000000000000, -3.50000000000000, 1.98000000000000 ) );
#422 = AXIS2_PLACEMENT_3D( '', #491, #492, #493 );
#423 = COLOUR_RGB( '', 0.505882382400000, 0.529411792800000, 0.549019634700000 );
#424 = CARTESIAN_POINT( '', ( 2.49000000000000, -3.00000000000000, 4.98000000000000 ) );
#425 = CARTESIAN_POINT( '', ( 2.49000000000000, 3.00000000000000, 4.98000000000000 ) );
#426 = CARTESIAN_POINT( '', ( 2.49000000000000, -3.50000000000000, 4.98000000000000 ) );
#427 = VECTOR( '', #494, 1000.00000000000 );
#428 = CARTESIAN_POINT( '', ( -2.49000000000000, 3.00000000000000, 4.98000000000000 ) );
#429 = CARTESIAN_POINT( '', ( -2.49000000000000, 3.00000000000000, 4.98000000000000 ) );
#430 = VECTOR( '', #495, 1000.00000000000 );
#431 = CARTESIAN_POINT( '', ( -2.49000000000000, -3.00000000000000, 4.98000000000000 ) );
#432 = CARTESIAN_POINT( '', ( -2.49000000000000, -3.50000000000000, 4.98000000000000 ) );
#433 = VECTOR( '', #496, 1000.00000000000 );
#434 = CARTESIAN_POINT( '', ( -2.49000000000000, -3.00000000000000, 4.98000000000000 ) );
#435 = VECTOR( '', #497, 1000.00000000000 );
#436 = COLOUR_RGB( '', 0.505882382400000, 0.529411792800000, 0.549019634700000 );
#437 = CARTESIAN_POINT( '', ( -2.49000000000000, -3.50000000000000, -9.16648129161794E-016 ) );
#438 = CARTESIAN_POINT( '', ( -2.49000000000000, -3.50000000000000, -9.16648129161794E-016 ) );
#439 = VECTOR( '', #498, 1000.00000000000 );
#440 = CARTESIAN_POINT( '', ( -2.49000000000000, -3.50000000000000, -9.16648129161794E-016 ) );
#441 = VECTOR( '', #499, 1000.00000000000 );
#442 = CARTESIAN_POINT( '', ( -2.49000000000000, -3.00000000000000, 4.98000000000000 ) );
#443 = VECTOR( '', #500, 1000.00000000000 );
#444 = CARTESIAN_POINT( '', ( -2.49000000000000, 3.00000000000000, 4.48000000000000 ) );
#445 = VECTOR( '', #501, 1000.00000000000 );
#446 = COLOUR_RGB( '', 0.505882382400000, 0.529411792800000, 0.549019634700000 );
#447 = CARTESIAN_POINT( '', ( 2.49000000000000, 3.00000000000000, 4.98000000000000 ) );
#448 = VECTOR( '', #502, 1000.00000000000 );
#449 = COLOUR_RGB( '', 0.505882382400000, 0.529411792800000, 0.549019634700000 );
#450 = CARTESIAN_POINT( '', ( 2.49000000000000, -3.00000000000000, 4.98000000000000 ) );
#451 = VECTOR( '', #503, 1000.00000000000 );
#452 = COLOUR_RGB( '', 0.505882382400000, 0.529411792800000, 0.549019634700000 );
#453 = CARTESIAN_POINT( '', ( 2.49000000000000, -3.50000000000000, -3.06774023186409E-016 ) );
#454 = CARTESIAN_POINT( '', ( 2.49000000000000, -3.50000000000000, -3.06774023186409E-016 ) );
#455 = VECTOR( '', #504, 1000.00000000000 );
#456 = CARTESIAN_POINT( '', ( 2.49000000000000, -3.50000000000000, -3.06774023186409E-016 ) );
#457 = VECTOR( '', #505, 1000.00000000000 );
#458 = COLOUR_RGB( '', 0.505882382400000, 0.529411792800000, 0.549019634700000 );
#459 = CARTESIAN_POINT( '', ( 3.69843333342503E-016, 3.30000000000000, 3.63000000000000 ) );
#460 = AXIS2_PLACEMENT_3D( '', #506, #507, #508 );
#461 = COLOUR_RGB( '', 0.505882382400000, 0.529411792800000, 0.549019634700000 );
#462 = CARTESIAN_POINT( '', ( 2.49000000000000, -3.50000000000000, 4.98000000000000 ) );
#463 = VECTOR( '', #509, 1000.00000000000 );
#464 = COLOUR_RGB( '', 0.505882382400000, 0.529411792800000, 0.549019634700000 );
#465 = COLOUR_RGB( '', 0.505882382400000, 0.529411792800000, 0.549019634700000 );
#466 = CARTESIAN_POINT( '', ( 0.000000000000000, 3.50000000000000, 54.4179605110181 ) );
#467 = DIRECTION( '', ( -0.000000000000000, 1.00000000000000, 0.000000000000000 ) );
#468 = DIRECTION( '', ( 1.00000000000000, 0.000000000000000, 0.000000000000000 ) );
#469 = DIRECTION( '', ( 0.000000000000000, 1.00000000000000, 0.000000000000000 ) );
#470 = CARTESIAN_POINT( '', ( 0.000000000000000, 3.00000000000000, 54.4179605110181 ) );
#471 = DIRECTION( '', ( -0.000000000000000, 1.00000000000000, 0.000000000000000 ) );
#472 = DIRECTION( '', ( 1.00000000000000, 0.000000000000000, 0.000000000000000 ) );
#473 = DIRECTION( '', ( 0.000000000000000, 1.00000000000000, 0.000000000000000 ) );
#474 = DIRECTION( '', ( 0.000000000000000, 0.000000000000000, -1.00000000000000 ) );
#475 = DIRECTION( '', ( -1.00000000000000, 0.000000000000000, -1.22464679914736E-016 ) );
#476 = DIRECTION( '', ( 0.000000000000000, 0.000000000000000, 1.00000000000000 ) );
#477 = CARTESIAN_POINT( '', ( 3.69843333342503E-016, 3.50000000000000, 1.98000000000000 ) );
#478 = DIRECTION( '', ( 0.000000000000000, -1.00000000000000, 0.000000000000000 ) );
#479 = DIRECTION( '', ( 1.00000000000000, 0.000000000000000, 0.000000000000000 ) );
#480 = CARTESIAN_POINT( '', ( 0.000000000000000, -3.50000000000000, 54.4179605110181 ) );
#481 = DIRECTION( '', ( 0.000000000000000, -1.00000000000000, 0.000000000000000 ) );
#482 = DIRECTION( '', ( 1.00000000000000, 0.000000000000000, 0.000000000000000 ) );
#483 = DIRECTION( '', ( 0.000000000000000, -1.00000000000000, 0.000000000000000 ) );
#484 = CARTESIAN_POINT( '', ( 0.000000000000000, -3.00000000000000, 54.4179605110181 ) );
#485 = DIRECTION( '', ( 0.000000000000000, -1.00000000000000, 0.000000000000000 ) );
#486 = DIRECTION( '', ( 1.00000000000000, 0.000000000000000, 0.000000000000000 ) );
#487 = DIRECTION( '', ( 0.000000000000000, -1.00000000000000, 0.000000000000000 ) );
#488 = CARTESIAN_POINT( '', ( 3.69843333342503E-016, -3.30000000000000, 1.98000000000000 ) );
#489 = DIRECTION( '', ( 0.000000000000000, -1.00000000000000, 0.000000000000000 ) );
#490 = DIRECTION( '', ( 0.000000000000000, 0.000000000000000, -1.00000000000000 ) );
#491 = CARTESIAN_POINT( '', ( 3.69843333342503E-016, -3.50000000000000, 1.98000000000000 ) );
#492 = DIRECTION( '', ( -0.000000000000000, 1.00000000000000, 0.000000000000000 ) );
#493 = DIRECTION( '', ( 1.00000000000000, 0.000000000000000, 0.000000000000000 ) );
#494 = DIRECTION( '', ( 0.000000000000000, 1.00000000000000, 0.000000000000000 ) );
#495 = DIRECTION( '', ( 1.00000000000000, 0.000000000000000, 1.74169023692450E-016 ) );
#496 = DIRECTION( '', ( 0.000000000000000, 1.00000000000000, 0.000000000000000 ) );
#497 = DIRECTION( '', ( -1.00000000000000, 0.000000000000000, -1.74169023692450E-016 ) );
#498 = DIRECTION( '', ( 0.000000000000000, 1.00000000000000, 0.000000000000000 ) );
#499 = DIRECTION( '', ( 0.000000000000000, 0.000000000000000, 1.00000000000000 ) );
#500 = DIRECTION( '', ( 0.000000000000000, 0.000000000000000, -1.00000000000000 ) );
#501 = DIRECTION( '', ( 0.000000000000000, 0.000000000000000, 1.00000000000000 ) );
#502 = DIRECTION( '', ( 0.000000000000000, 0.000000000000000, -1.00000000000000 ) );
#503 = DIRECTION( '', ( 0.000000000000000, 0.000000000000000, 1.00000000000000 ) );
#504 = DIRECTION( '', ( 0.000000000000000, 1.00000000000000, 0.000000000000000 ) );
#505 = DIRECTION( '', ( -1.00000000000000, 0.000000000000000, -1.22464679914736E-016 ) );
#506 = CARTESIAN_POINT( '', ( 3.69843333342503E-016, 3.30000000000000, 1.98000000000000 ) );
#507 = DIRECTION( '', ( 0.000000000000000, 1.00000000000000, 0.000000000000000 ) );
#508 = DIRECTION( '', ( 0.000000000000000, 0.000000000000000, 1.00000000000000 ) );
#509 = DIRECTION( '', ( 0.000000000000000, 0.000000000000000, -1.00000000000000 ) );
ENDSEC;
END-ISO-10303-21;
