ISO-10303-21;
HEADER;
FILE_DESCRIPTION( ( 'Unknown' ), '1' );
FILE_NAME( 'I:/User_Groups_Only/17_EMC_Product_&_Development/Documentations/1_ArtikelStamm/PG_1/WE_Ferrite_Block/Grafiken_Zeichnungen/CAD_Zeichnungswesen/CAD_aktuell/7427256_Ferritkern/3d_view/7427256.stp', 'Unknown', ( 'Unknown' ), ( 'Unknown' ), 'XStep 1.0', 'Unknown', '  ' );
FILE_SCHEMA( ( 'automotive_design' ) );
ENDSEC;
DATA;
#1 = MECHANICAL_DESIGN_GEOMETRIC_PRESENTATION_REPRESENTATION( ' ', ( #14, #15, #16, #17, #18, #19, #20, #21, #22, #23 ), #10 );
#2 = PRODUCT_DEFINITION_CONTEXT( '', #24, 'design' );
#3 = APPLICATION_PROTOCOL_DEFINITION( 'INTERNATIONAL STANDARD', 'automotive_design', 1994, #24 );
#4 = PRODUCT_CATEGORY_RELATIONSHIP( 'NONE', 'NONE', #25, #26 );
#5 = SHAPE_DEFINITION_REPRESENTATION( #27, #28 );
#6 = PRODUCT_DEFINITION_CONTEXT( '', #29, 'design' );
#7 = APPLICATION_PROTOCOL_DEFINITION( 'INTERNATIONAL STANDARD', 'automotive_design', 1994, #29 );
#8 = PRODUCT_CATEGORY_RELATIONSHIP( 'NONE', 'NONE', #30, #31 );
#9 = SHAPE_DEFINITION_REPRESENTATION( #32, #33 );
#10 =  ( GEOMETRIC_REPRESENTATION_CONTEXT( 3 )GLOBAL_UNCERTAINTY_ASSIGNED_CONTEXT( ( #36 ) )GLOBAL_UNIT_ASSIGNED_CONTEXT( ( #38, #39, #40 ) )REPRESENTATION_CONTEXT( 'NONE', 'WORKSPACE' ) );
#14 = STYLED_ITEM( '', ( #42 ), #43 );
#15 = STYLED_ITEM( '', ( #44 ), #45 );
#16 = STYLED_ITEM( '', ( #46 ), #47 );
#17 = STYLED_ITEM( '', ( #48 ), #49 );
#18 = STYLED_ITEM( '', ( #50 ), #51 );
#19 = STYLED_ITEM( '', ( #52 ), #53 );
#20 = STYLED_ITEM( '', ( #54 ), #55 );
#21 = STYLED_ITEM( '', ( #56 ), #57 );
#22 = STYLED_ITEM( '', ( #58 ), #59 );
#23 = STYLED_ITEM( '', ( #60 ), #61 );
#24 = APPLICATION_CONTEXT( ' ' );
#25 = PRODUCT_CATEGORY( 'part', 'NONE' );
#26 = PRODUCT_RELATED_PRODUCT_CATEGORY( 'detail', ' ', ( #62 ) );
#27 = PRODUCT_DEFINITION_SHAPE( 'NONE', 'NONE', #63 );
#28 = ADVANCED_BREP_SHAPE_REPRESENTATION( 'Assem1', ( #64, #65, #66 ), #10 );
#29 = APPLICATION_CONTEXT( ' ' );
#30 = PRODUCT_CATEGORY( 'part', 'NONE' );
#31 = PRODUCT_RELATED_PRODUCT_CATEGORY( 'detail', ' ', ( #67 ) );
#32 = PRODUCT_DEFINITION_SHAPE( 'NONE', 'NONE', #68 );
#33 = ADVANCED_BREP_SHAPE_REPRESENTATION( 'Ferrit', ( #69 ), #10 );
#36 = UNCERTAINTY_MEASURE_WITH_UNIT( LENGTH_MEASURE( 0.00100000000000000 ), #38, '', '' );
#38 =  ( CONVERSION_BASED_UNIT( 'MILLIMETRE', #72 )LENGTH_UNIT(  )NAMED_UNIT( #75 ) );
#39 =  ( NAMED_UNIT( #77 )PLANE_ANGLE_UNIT(  )SI_UNIT( $, .RADIAN. ) );
#40 =  ( NAMED_UNIT( #77 )SOLID_ANGLE_UNIT(  )SI_UNIT( $, .STERADIAN. ) );
#42 = PRESENTATION_STYLE_ASSIGNMENT( ( #83 ) );
#43 = ADVANCED_FACE( '', ( #84 ), #85, .F. );
#44 = PRESENTATION_STYLE_ASSIGNMENT( ( #86 ) );
#45 = ADVANCED_FACE( '', ( #87 ), #88, .T. );
#46 = PRESENTATION_STYLE_ASSIGNMENT( ( #89 ) );
#47 = ADVANCED_FACE( '', ( #90 ), #91, .T. );
#48 = PRESENTATION_STYLE_ASSIGNMENT( ( #92 ) );
#49 = ADVANCED_FACE( '', ( #93 ), #94, .T. );
#50 = PRESENTATION_STYLE_ASSIGNMENT( ( #95 ) );
#51 = ADVANCED_FACE( '', ( #96 ), #97, .F. );
#52 = PRESENTATION_STYLE_ASSIGNMENT( ( #98 ) );
#53 = ADVANCED_FACE( '', ( #99 ), #100, .F. );
#54 = PRESENTATION_STYLE_ASSIGNMENT( ( #101 ) );
#55 = ADVANCED_FACE( '', ( #102 ), #103, .T. );
#56 = PRESENTATION_STYLE_ASSIGNMENT( ( #104 ) );
#57 = ADVANCED_FACE( '', ( #105 ), #106, .F. );
#58 = PRESENTATION_STYLE_ASSIGNMENT( ( #107 ) );
#59 = ADVANCED_FACE( '', ( #108 ), #109, .T. );
#60 = PRESENTATION_STYLE_ASSIGNMENT( ( #110 ) );
#61 = ADVANCED_FACE( '', ( #111 ), #112, .F. );
#62 = PRODUCT( 'Assem1', 'Assem1', 'PART-Assem1-DESC', ( #113 ) );
#63 = PRODUCT_DEFINITION( 'NONE', 'NONE', #114, #2 );
#64 = MAPPED_ITEM( '', #115, #116 );
#65 = MAPPED_ITEM( '', #117, #118 );
#66 = AXIS2_PLACEMENT_3D( '', #119, #120, #121 );
#67 = PRODUCT( 'Ferrit', 'Ferrit', 'PART-Ferrit-DESC', ( #122 ) );
#68 = PRODUCT_DEFINITION( 'NONE', 'NONE', #123, #6 );
#69 = MANIFOLD_SOLID_BREP( 'Ferrit', #124 );
#72 = LENGTH_MEASURE_WITH_UNIT( LENGTH_MEASURE( 1.00000000000000 ), #125 );
#75 = DIMENSIONAL_EXPONENTS( 1.00000000000000, 0.000000000000000, 0.000000000000000, 0.000000000000000, 0.000000000000000, 0.000000000000000, 0.000000000000000 );
#77 = DIMENSIONAL_EXPONENTS( 0.000000000000000, 0.000000000000000, 0.000000000000000, 0.000000000000000, 0.000000000000000, 0.000000000000000, 0.000000000000000 );
#83 = SURFACE_STYLE_USAGE( .BOTH., #126 );
#84 = FACE_OUTER_BOUND( '', #127, .T. );
#85 = PLANE( '', #128 );
#86 = SURFACE_STYLE_USAGE( .BOTH., #129 );
#87 = FACE_OUTER_BOUND( '', #130, .T. );
#88 = PLANE( '', #131 );
#89 = SURFACE_STYLE_USAGE( .BOTH., #132 );
#90 = FACE_OUTER_BOUND( '', #133, .T. );
#91 = PLANE( '', #134 );
#92 = SURFACE_STYLE_USAGE( .BOTH., #135 );
#93 = FACE_OUTER_BOUND( '', #136, .T. );
#94 = PLANE( '', #137 );
#95 = SURFACE_STYLE_USAGE( .BOTH., #138 );
#96 = FACE_OUTER_BOUND( '', #139, .T. );
#97 = PLANE( '', #140 );
#98 = SURFACE_STYLE_USAGE( .BOTH., #141 );
#99 = FACE_OUTER_BOUND( '', #142, .T. );
#100 = PLANE( '', #143 );
#101 = SURFACE_STYLE_USAGE( .BOTH., #144 );
#102 = FACE_OUTER_BOUND( '', #145, .T. );
#103 = PLANE( '', #146 );
#104 = SURFACE_STYLE_USAGE( .BOTH., #147 );
#105 = FACE_OUTER_BOUND( '', #148, .T. );
#106 = PLANE( '', #149 );
#107 = SURFACE_STYLE_USAGE( .BOTH., #150 );
#108 = FACE_OUTER_BOUND( '', #151, .T. );
#109 = PLANE( '', #152 );
#110 = SURFACE_STYLE_USAGE( .BOTH., #153 );
#111 = FACE_OUTER_BOUND( '', #154, .T. );
#112 = PLANE( '', #155 );
#113 = PRODUCT_CONTEXT( '', #24, 'mechanical' );
#114 = PRODUCT_DEFINITION_FORMATION_WITH_SPECIFIED_SOURCE( ' ', 'NONE', #62, .NOT_KNOWN. );
#115 = REPRESENTATION_MAP( #66, #33 );
#116 = AXIS2_PLACEMENT_3D( '', #156, #157, #158 );
#117 = REPRESENTATION_MAP( #66, #33 );
#118 = AXIS2_PLACEMENT_3D( '', #159, #160, #161 );
#119 = CARTESIAN_POINT( '', ( 0.000000000000000, 0.000000000000000, 0.000000000000000 ) );
#120 = DIRECTION( '', ( 0.000000000000000, 0.000000000000000, 1.00000000000000 ) );
#121 = DIRECTION( '', ( 1.00000000000000, 0.000000000000000, 0.000000000000000 ) );
#122 = PRODUCT_CONTEXT( '', #29, 'mechanical' );
#123 = PRODUCT_DEFINITION_FORMATION_WITH_SPECIFIED_SOURCE( ' ', 'NONE', #67, .NOT_KNOWN. );
#124 = CLOSED_SHELL( '', ( #45, #53, #59, #61, #47, #43, #57, #51, #49, #55 ) );
#125 =  ( NAMED_UNIT( #75 )LENGTH_UNIT(  )SI_UNIT( .MILLI., .METRE. ) );
#126 = SURFACE_SIDE_STYLE( '', ( #163 ) );
#127 = EDGE_LOOP( '', ( #164, #165, #166, #167, #168, #169, #170, #171 ) );
#128 = AXIS2_PLACEMENT_3D( '', #172, #173, #174 );
#129 = SURFACE_SIDE_STYLE( '', ( #175 ) );
#130 = EDGE_LOOP( '', ( #176, #177, #178, #179 ) );
#131 = AXIS2_PLACEMENT_3D( '', #180, #181, #182 );
#132 = SURFACE_SIDE_STYLE( '', ( #183 ) );
#133 = EDGE_LOOP( '', ( #184, #185, #186, #187 ) );
#134 = AXIS2_PLACEMENT_3D( '', #188, #189, #190 );
#135 = SURFACE_SIDE_STYLE( '', ( #191 ) );
#136 = EDGE_LOOP( '', ( #192, #193, #194, #195 ) );
#137 = AXIS2_PLACEMENT_3D( '', #196, #197, #198 );
#138 = SURFACE_SIDE_STYLE( '', ( #199 ) );
#139 = EDGE_LOOP( '', ( #200, #201, #202, #203 ) );
#140 = AXIS2_PLACEMENT_3D( '', #204, #205, #206 );
#141 = SURFACE_SIDE_STYLE( '', ( #207 ) );
#142 = EDGE_LOOP( '', ( #208, #209, #210, #211 ) );
#143 = AXIS2_PLACEMENT_3D( '', #212, #213, #214 );
#144 = SURFACE_SIDE_STYLE( '', ( #215 ) );
#145 = EDGE_LOOP( '', ( #216, #217, #218, #219 ) );
#146 = AXIS2_PLACEMENT_3D( '', #220, #221, #222 );
#147 = SURFACE_SIDE_STYLE( '', ( #223 ) );
#148 = EDGE_LOOP( '', ( #224, #225, #226, #227 ) );
#149 = AXIS2_PLACEMENT_3D( '', #228, #229, #230 );
#150 = SURFACE_SIDE_STYLE( '', ( #231 ) );
#151 = EDGE_LOOP( '', ( #232, #233, #234, #235 ) );
#152 = AXIS2_PLACEMENT_3D( '', #236, #237, #238 );
#153 = SURFACE_SIDE_STYLE( '', ( #239 ) );
#154 = EDGE_LOOP( '', ( #240, #241, #242, #243, #244, #245, #246, #247 ) );
#155 = AXIS2_PLACEMENT_3D( '', #248, #249, #250 );
#156 = CARTESIAN_POINT( '', ( 0.000000000000000, 0.000000000000000, 0.000000000000000 ) );
#157 = DIRECTION( '', ( 0.000000000000000, 0.000000000000000, 1.00000000000000 ) );
#158 = DIRECTION( '', ( 1.00000000000000, 0.000000000000000, 0.000000000000000 ) );
#159 = CARTESIAN_POINT( '', ( 1.48535697630514E-014, 1.39862080250630E-014, 15.3000000000000 ) );
#160 = DIRECTION( '', ( 1.52254366890983E-016, 5.44037347816316E-017, -1.00000000000000 ) );
#161 = DIRECTION( '', ( -1.00000000000000, 1.11022302462516E-016, -1.52254366890983E-016 ) );
#163 = SURFACE_STYLE_FILL_AREA( #251 );
#164 = ORIENTED_EDGE( '', *, *, #252, .F. );
#165 = ORIENTED_EDGE( '', *, *, #253, .F. );
#166 = ORIENTED_EDGE( '', *, *, #254, .T. );
#167 = ORIENTED_EDGE( '', *, *, #255, .T. );
#168 = ORIENTED_EDGE( '', *, *, #256, .F. );
#169 = ORIENTED_EDGE( '', *, *, #257, .F. );
#170 = ORIENTED_EDGE( '', *, *, #258, .F. );
#171 = ORIENTED_EDGE( '', *, *, #259, .F. );
#172 = CARTESIAN_POINT( '', ( -55.0000000000000, -14.2500000000000, 7.65000000000000 ) );
#173 = DIRECTION( '', ( -6.30808536718839E-017, 1.00000000000000, 0.000000000000000 ) );
#174 = DIRECTION( '', ( -1.00000000000000, -6.30808536718839E-017, 0.000000000000000 ) );
#175 = SURFACE_STYLE_FILL_AREA( #260 );
#176 = ORIENTED_EDGE( '', *, *, #261, .T. );
#177 = ORIENTED_EDGE( '', *, *, #262, .T. );
#178 = ORIENTED_EDGE( '', *, *, #263, .T. );
#179 = ORIENTED_EDGE( '', *, *, #253, .T. );
#180 = CARTESIAN_POINT( '', ( -55.0000000000000, -14.2500000000000, 7.65000000000000 ) );
#181 = DIRECTION( '', ( 0.000000000000000, 0.000000000000000, 1.00000000000000 ) );
#182 = DIRECTION( '', ( 1.00000000000000, 0.000000000000000, 0.000000000000000 ) );
#183 = SURFACE_STYLE_FILL_AREA( #264 );
#184 = ORIENTED_EDGE( '', *, *, #265, .T. );
#185 = ORIENTED_EDGE( '', *, *, #266, .T. );
#186 = ORIENTED_EDGE( '', *, *, #257, .T. );
#187 = ORIENTED_EDGE( '', *, *, #267, .T. );
#188 = CARTESIAN_POINT( '', ( -55.0000000000000, -14.2500000000000, 7.65000000000000 ) );
#189 = DIRECTION( '', ( 0.000000000000000, 0.000000000000000, 1.00000000000000 ) );
#190 = DIRECTION( '', ( 1.00000000000000, 0.000000000000000, 0.000000000000000 ) );
#191 = SURFACE_STYLE_FILL_AREA( #268 );
#192 = ORIENTED_EDGE( '', *, *, #252, .T. );
#193 = ORIENTED_EDGE( '', *, *, #269, .T. );
#194 = ORIENTED_EDGE( '', *, *, #270, .F. );
#195 = ORIENTED_EDGE( '', *, *, #261, .F. );
#196 = CARTESIAN_POINT( '', ( -41.7000000000000, -113.889299321754, 7.65000000000000 ) );
#197 = DIRECTION( '', ( 1.00000000000000, 0.000000000000000, 0.000000000000000 ) );
#198 = DIRECTION( '', ( 0.000000000000000, 0.000000000000000, -1.00000000000000 ) );
#199 = SURFACE_STYLE_FILL_AREA( #271 );
#200 = ORIENTED_EDGE( '', *, *, #272, .T. );
#201 = ORIENTED_EDGE( '', *, *, #273, .F. );
#202 = ORIENTED_EDGE( '', *, *, #267, .F. );
#203 = ORIENTED_EDGE( '', *, *, #256, .T. );
#204 = CARTESIAN_POINT( '', ( 55.0000000000000, -14.2500000000000, 7.65000000000000 ) );
#205 = DIRECTION( '', ( -1.00000000000000, 0.000000000000000, 0.000000000000000 ) );
#206 = DIRECTION( '', ( 0.000000000000000, 0.000000000000000, 1.00000000000000 ) );
#207 = SURFACE_STYLE_FILL_AREA( #274 );
#208 = ORIENTED_EDGE( '', *, *, #275, .T. );
#209 = ORIENTED_EDGE( '', *, *, #254, .F. );
#210 = ORIENTED_EDGE( '', *, *, #263, .F. );
#211 = ORIENTED_EDGE( '', *, *, #276, .T. );
#212 = CARTESIAN_POINT( '', ( -55.0000000000000, 14.2500000000000, 7.65000000000000 ) );
#213 = DIRECTION( '', ( 1.00000000000000, 0.000000000000000, 0.000000000000000 ) );
#214 = DIRECTION( '', ( 0.000000000000000, 0.000000000000000, -1.00000000000000 ) );
#215 = SURFACE_STYLE_FILL_AREA( #277 );
#216 = ORIENTED_EDGE( '', *, *, #259, .T. );
#217 = ORIENTED_EDGE( '', *, *, #278, .T. );
#218 = ORIENTED_EDGE( '', *, *, #279, .F. );
#219 = ORIENTED_EDGE( '', *, *, #269, .F. );
#220 = CARTESIAN_POINT( '', ( -41.7000000000000, -113.889299321754, 6.45000000000000 ) );
#221 = DIRECTION( '', ( 0.000000000000000, 0.000000000000000, 1.00000000000000 ) );
#222 = DIRECTION( '', ( 1.00000000000000, 0.000000000000000, 0.000000000000000 ) );
#223 = SURFACE_STYLE_FILL_AREA( #280 );
#224 = ORIENTED_EDGE( '', *, *, #275, .F. );
#225 = ORIENTED_EDGE( '', *, *, #281, .F. );
#226 = ORIENTED_EDGE( '', *, *, #272, .F. );
#227 = ORIENTED_EDGE( '', *, *, #255, .F. );
#228 = CARTESIAN_POINT( '', ( -55.0000000000000, -14.2500000000000, 0.000000000000000 ) );
#229 = DIRECTION( '', ( 0.000000000000000, 0.000000000000000, 1.00000000000000 ) );
#230 = DIRECTION( '', ( 1.00000000000000, 0.000000000000000, 0.000000000000000 ) );
#231 = SURFACE_STYLE_FILL_AREA( #282 );
#232 = ORIENTED_EDGE( '', *, *, #258, .T. );
#233 = ORIENTED_EDGE( '', *, *, #266, .F. );
#234 = ORIENTED_EDGE( '', *, *, #283, .F. );
#235 = ORIENTED_EDGE( '', *, *, #278, .F. );
#236 = CARTESIAN_POINT( '', ( 41.7000000000000, -113.889299321754, 6.45000000000000 ) );
#237 = DIRECTION( '', ( -1.00000000000000, 0.000000000000000, 0.000000000000000 ) );
#238 = DIRECTION( '', ( 0.000000000000000, 0.000000000000000, 1.00000000000000 ) );
#239 = SURFACE_STYLE_FILL_AREA( #284 );
#240 = ORIENTED_EDGE( '', *, *, #262, .F. );
#241 = ORIENTED_EDGE( '', *, *, #270, .T. );
#242 = ORIENTED_EDGE( '', *, *, #279, .T. );
#243 = ORIENTED_EDGE( '', *, *, #283, .T. );
#244 = ORIENTED_EDGE( '', *, *, #265, .F. );
#245 = ORIENTED_EDGE( '', *, *, #273, .T. );
#246 = ORIENTED_EDGE( '', *, *, #281, .T. );
#247 = ORIENTED_EDGE( '', *, *, #276, .F. );
#248 = CARTESIAN_POINT( '', ( 55.0000000000000, 14.2500000000000, 7.65000000000000 ) );
#249 = DIRECTION( '', ( -6.30808536718839E-017, -1.00000000000000, 0.000000000000000 ) );
#250 = DIRECTION( '', ( 1.00000000000000, -6.30808536718839E-017, 0.000000000000000 ) );
#251 = FILL_AREA_STYLE( '', ( #285 ) );
#252 = EDGE_CURVE( '', #286, #287, #288, .T. );
#253 = EDGE_CURVE( '', #289, #286, #290, .T. );
#254 = EDGE_CURVE( '', #289, #291, #292, .T. );
#255 = EDGE_CURVE( '', #291, #293, #294, .T. );
#256 = EDGE_CURVE( '', #295, #293, #296, .T. );
#257 = EDGE_CURVE( '', #297, #295, #298, .T. );
#258 = EDGE_CURVE( '', #299, #297, #300, .T. );
#259 = EDGE_CURVE( '', #287, #299, #301, .T. );
#260 = FILL_AREA_STYLE( '', ( #302 ) );
#261 = EDGE_CURVE( '', #286, #303, #304, .T. );
#262 = EDGE_CURVE( '', #303, #305, #306, .T. );
#263 = EDGE_CURVE( '', #305, #289, #307, .T. );
#264 = FILL_AREA_STYLE( '', ( #308 ) );
#265 = EDGE_CURVE( '', #309, #310, #311, .T. );
#266 = EDGE_CURVE( '', #310, #297, #312, .T. );
#267 = EDGE_CURVE( '', #295, #309, #313, .T. );
#268 = FILL_AREA_STYLE( '', ( #314 ) );
#269 = EDGE_CURVE( '', #287, #315, #316, .T. );
#270 = EDGE_CURVE( '', #303, #315, #317, .T. );
#271 = FILL_AREA_STYLE( '', ( #318 ) );
#272 = EDGE_CURVE( '', #293, #319, #320, .T. );
#273 = EDGE_CURVE( '', #309, #319, #321, .T. );
#274 = FILL_AREA_STYLE( '', ( #322 ) );
#275 = EDGE_CURVE( '', #323, #291, #324, .T. );
#276 = EDGE_CURVE( '', #305, #323, #325, .T. );
#277 = FILL_AREA_STYLE( '', ( #326 ) );
#278 = EDGE_CURVE( '', #299, #327, #328, .T. );
#279 = EDGE_CURVE( '', #315, #327, #329, .T. );
#280 = FILL_AREA_STYLE( '', ( #330 ) );
#281 = EDGE_CURVE( '', #319, #323, #331, .T. );
#282 = FILL_AREA_STYLE( '', ( #332 ) );
#283 = EDGE_CURVE( '', #327, #310, #333, .T. );
#284 = FILL_AREA_STYLE( '', ( #334 ) );
#285 = FILL_AREA_STYLE_COLOUR( '', #335 );
#286 = VERTEX_POINT( '', #336 );
#287 = VERTEX_POINT( '', #337 );
#288 = LINE( '', #338, #339 );
#289 = VERTEX_POINT( '', #340 );
#290 = LINE( '', #341, #342 );
#291 = VERTEX_POINT( '', #343 );
#292 = LINE( '', #344, #345 );
#293 = VERTEX_POINT( '', #346 );
#294 = LINE( '', #347, #348 );
#295 = VERTEX_POINT( '', #349 );
#296 = LINE( '', #350, #351 );
#297 = VERTEX_POINT( '', #352 );
#298 = LINE( '', #353, #354 );
#299 = VERTEX_POINT( '', #355 );
#300 = LINE( '', #356, #357 );
#301 = LINE( '', #358, #359 );
#302 = FILL_AREA_STYLE_COLOUR( '', #360 );
#303 = VERTEX_POINT( '', #361 );
#304 = LINE( '', #362, #363 );
#305 = VERTEX_POINT( '', #364 );
#306 = LINE( '', #365, #366 );
#307 = LINE( '', #367, #368 );
#308 = FILL_AREA_STYLE_COLOUR( '', #369 );
#309 = VERTEX_POINT( '', #370 );
#310 = VERTEX_POINT( '', #371 );
#311 = LINE( '', #372, #373 );
#312 = LINE( '', #374, #375 );
#313 = LINE( '', #376, #377 );
#314 = FILL_AREA_STYLE_COLOUR( '', #378 );
#315 = VERTEX_POINT( '', #379 );
#316 = LINE( '', #380, #381 );
#317 = LINE( '', #382, #383 );
#318 = FILL_AREA_STYLE_COLOUR( '', #384 );
#319 = VERTEX_POINT( '', #385 );
#320 = LINE( '', #386, #387 );
#321 = LINE( '', #388, #389 );
#322 = FILL_AREA_STYLE_COLOUR( '', #390 );
#323 = VERTEX_POINT( '', #391 );
#324 = LINE( '', #392, #393 );
#325 = LINE( '', #394, #395 );
#326 = FILL_AREA_STYLE_COLOUR( '', #396 );
#327 = VERTEX_POINT( '', #397 );
#328 = LINE( '', #398, #399 );
#329 = LINE( '', #400, #401 );
#330 = FILL_AREA_STYLE_COLOUR( '', #402 );
#331 = LINE( '', #403, #404 );
#332 = FILL_AREA_STYLE_COLOUR( '', #405 );
#333 = LINE( '', #406, #407 );
#334 = FILL_AREA_STYLE_COLOUR( '', #408 );
#335 = COLOUR_RGB( '', 0.200000002980232, 0.200000002980232, 0.200000002980232 );
#336 = CARTESIAN_POINT( '', ( -41.7000000000000, -14.2500000000000, 7.65000000000000 ) );
#337 = CARTESIAN_POINT( '', ( -41.7000000000000, -14.2500000000000, 6.45000000000000 ) );
#338 = CARTESIAN_POINT( '', ( -41.7000000000000, -14.2500000000000, 7.65000000000000 ) );
#339 = VECTOR( '', #409, 1000.00000000000 );
#340 = CARTESIAN_POINT( '', ( -55.0000000000000, -14.2500000000000, 7.65000000000000 ) );
#341 = CARTESIAN_POINT( '', ( -55.0000000000000, -14.2500000000000, 7.65000000000000 ) );
#342 = VECTOR( '', #410, 1000.00000000000 );
#343 = CARTESIAN_POINT( '', ( -55.0000000000000, -14.2500000000000, 0.000000000000000 ) );
#344 = CARTESIAN_POINT( '', ( -55.0000000000000, -14.2500000000000, 7.65000000000000 ) );
#345 = VECTOR( '', #411, 1000.00000000000 );
#346 = CARTESIAN_POINT( '', ( 55.0000000000000, -14.2500000000000, 0.000000000000000 ) );
#347 = CARTESIAN_POINT( '', ( -55.0000000000000, -14.2500000000000, 0.000000000000000 ) );
#348 = VECTOR( '', #412, 1000.00000000000 );
#349 = CARTESIAN_POINT( '', ( 55.0000000000000, -14.2500000000000, 7.65000000000000 ) );
#350 = CARTESIAN_POINT( '', ( 55.0000000000000, -14.2500000000000, 7.65000000000000 ) );
#351 = VECTOR( '', #413, 1000.00000000000 );
#352 = CARTESIAN_POINT( '', ( 41.7000000000000, -14.2500000000000, 7.65000000000000 ) );
#353 = CARTESIAN_POINT( '', ( -55.0000000000000, -14.2500000000000, 7.65000000000000 ) );
#354 = VECTOR( '', #414, 1000.00000000000 );
#355 = CARTESIAN_POINT( '', ( 41.7000000000000, -14.2500000000000, 6.45000000000000 ) );
#356 = CARTESIAN_POINT( '', ( 41.7000000000000, -14.2500000000000, 7.65000000000000 ) );
#357 = VECTOR( '', #415, 1000.00000000000 );
#358 = CARTESIAN_POINT( '', ( -55.0000000000000, -14.2500000000000, 6.45000000000000 ) );
#359 = VECTOR( '', #416, 1000.00000000000 );
#360 = COLOUR_RGB( '', 0.200000002980232, 0.200000002980232, 0.200000002980232 );
#361 = CARTESIAN_POINT( '', ( -41.7000000000000, 14.2500000000000, 7.65000000000000 ) );
#362 = CARTESIAN_POINT( '', ( -41.7000000000000, -14.2500000000000, 7.65000000000000 ) );
#363 = VECTOR( '', #417, 1000.00000000000 );
#364 = CARTESIAN_POINT( '', ( -55.0000000000000, 14.2500000000000, 7.65000000000000 ) );
#365 = CARTESIAN_POINT( '', ( 55.0000000000000, 14.2500000000000, 7.65000000000000 ) );
#366 = VECTOR( '', #418, 1000.00000000000 );
#367 = CARTESIAN_POINT( '', ( -55.0000000000000, 14.2500000000000, 7.65000000000000 ) );
#368 = VECTOR( '', #419, 1000.00000000000 );
#369 = COLOUR_RGB( '', 0.200000002980232, 0.200000002980232, 0.200000002980232 );
#370 = CARTESIAN_POINT( '', ( 55.0000000000000, 14.2500000000000, 7.65000000000000 ) );
#371 = CARTESIAN_POINT( '', ( 41.7000000000000, 14.2500000000000, 7.65000000000000 ) );
#372 = CARTESIAN_POINT( '', ( 55.0000000000000, 14.2500000000000, 7.65000000000000 ) );
#373 = VECTOR( '', #420, 1000.00000000000 );
#374 = CARTESIAN_POINT( '', ( 41.7000000000000, -14.2500000000000, 7.65000000000000 ) );
#375 = VECTOR( '', #421, 1000.00000000000 );
#376 = CARTESIAN_POINT( '', ( 55.0000000000000, -14.2500000000000, 7.65000000000000 ) );
#377 = VECTOR( '', #422, 1000.00000000000 );
#378 = COLOUR_RGB( '', 0.200000002980232, 0.200000002980232, 0.200000002980232 );
#379 = CARTESIAN_POINT( '', ( -41.7000000000000, 14.2500000000000, 6.45000000000000 ) );
#380 = CARTESIAN_POINT( '', ( -41.7000000000000, -113.889299321754, 6.45000000000000 ) );
#381 = VECTOR( '', #423, 1000.00000000000 );
#382 = CARTESIAN_POINT( '', ( -41.7000000000000, 14.2500000000000, 7.65000000000000 ) );
#383 = VECTOR( '', #424, 1000.00000000000 );
#384 = COLOUR_RGB( '', 0.200000002980232, 0.200000002980232, 0.200000002980232 );
#385 = CARTESIAN_POINT( '', ( 55.0000000000000, 14.2500000000000, 0.000000000000000 ) );
#386 = CARTESIAN_POINT( '', ( 55.0000000000000, -14.2500000000000, 0.000000000000000 ) );
#387 = VECTOR( '', #425, 1000.00000000000 );
#388 = CARTESIAN_POINT( '', ( 55.0000000000000, 14.2500000000000, 7.65000000000000 ) );
#389 = VECTOR( '', #426, 1000.00000000000 );
#390 = COLOUR_RGB( '', 0.200000002980232, 0.200000002980232, 0.200000002980232 );
#391 = CARTESIAN_POINT( '', ( -55.0000000000000, 14.2500000000000, 0.000000000000000 ) );
#392 = CARTESIAN_POINT( '', ( -55.0000000000000, 14.2500000000000, 0.000000000000000 ) );
#393 = VECTOR( '', #427, 1000.00000000000 );
#394 = CARTESIAN_POINT( '', ( -55.0000000000000, 14.2500000000000, 7.65000000000000 ) );
#395 = VECTOR( '', #428, 1000.00000000000 );
#396 = COLOUR_RGB( '', 0.200000002980232, 0.200000002980232, 0.200000002980232 );
#397 = CARTESIAN_POINT( '', ( 41.7000000000000, 14.2500000000000, 6.45000000000000 ) );
#398 = CARTESIAN_POINT( '', ( 41.7000000000000, -113.889299321754, 6.45000000000000 ) );
#399 = VECTOR( '', #429, 1000.00000000000 );
#400 = CARTESIAN_POINT( '', ( 55.0000000000000, 14.2500000000000, 6.45000000000000 ) );
#401 = VECTOR( '', #430, 1000.00000000000 );
#402 = COLOUR_RGB( '', 0.200000002980232, 0.200000002980232, 0.200000002980232 );
#403 = CARTESIAN_POINT( '', ( 55.0000000000000, 14.2500000000000, 0.000000000000000 ) );
#404 = VECTOR( '', #431, 1000.00000000000 );
#405 = COLOUR_RGB( '', 0.200000002980232, 0.200000002980232, 0.200000002980232 );
#406 = CARTESIAN_POINT( '', ( 41.7000000000000, 14.2500000000000, 7.65000000000000 ) );
#407 = VECTOR( '', #432, 1000.00000000000 );
#408 = COLOUR_RGB( '', 0.200000002980232, 0.200000002980232, 0.200000002980232 );
#409 = DIRECTION( '', ( 0.000000000000000, 0.000000000000000, -1.00000000000000 ) );
#410 = DIRECTION( '', ( 1.00000000000000, 6.30808536718839E-017, 0.000000000000000 ) );
#411 = DIRECTION( '', ( 0.000000000000000, 0.000000000000000, -1.00000000000000 ) );
#412 = DIRECTION( '', ( 1.00000000000000, 6.30808536718839E-017, 0.000000000000000 ) );
#413 = DIRECTION( '', ( 0.000000000000000, 0.000000000000000, -1.00000000000000 ) );
#414 = DIRECTION( '', ( 1.00000000000000, 6.30808536718839E-017, 0.000000000000000 ) );
#415 = DIRECTION( '', ( 0.000000000000000, 0.000000000000000, 1.00000000000000 ) );
#416 = DIRECTION( '', ( 1.00000000000000, 6.30808536718839E-017, 0.000000000000000 ) );
#417 = DIRECTION( '', ( 0.000000000000000, 1.00000000000000, 0.000000000000000 ) );
#418 = DIRECTION( '', ( -1.00000000000000, 6.30808536718839E-017, 0.000000000000000 ) );
#419 = DIRECTION( '', ( 0.000000000000000, -1.00000000000000, 0.000000000000000 ) );
#420 = DIRECTION( '', ( -1.00000000000000, 6.30808536718839E-017, 0.000000000000000 ) );
#421 = DIRECTION( '', ( 0.000000000000000, -1.00000000000000, 0.000000000000000 ) );
#422 = DIRECTION( '', ( 0.000000000000000, 1.00000000000000, 0.000000000000000 ) );
#423 = DIRECTION( '', ( 0.000000000000000, 1.00000000000000, 0.000000000000000 ) );
#424 = DIRECTION( '', ( 0.000000000000000, 0.000000000000000, -1.00000000000000 ) );
#425 = DIRECTION( '', ( 0.000000000000000, 1.00000000000000, 0.000000000000000 ) );
#426 = DIRECTION( '', ( 0.000000000000000, 0.000000000000000, -1.00000000000000 ) );
#427 = DIRECTION( '', ( 0.000000000000000, -1.00000000000000, 0.000000000000000 ) );
#428 = DIRECTION( '', ( 0.000000000000000, 0.000000000000000, -1.00000000000000 ) );
#429 = DIRECTION( '', ( 0.000000000000000, 1.00000000000000, 0.000000000000000 ) );
#430 = DIRECTION( '', ( 1.00000000000000, -6.30808536718839E-017, 0.000000000000000 ) );
#431 = DIRECTION( '', ( -1.00000000000000, 6.30808536718839E-017, 0.000000000000000 ) );
#432 = DIRECTION( '', ( 0.000000000000000, 0.000000000000000, 1.00000000000000 ) );
ENDSEC;
END-ISO-10303-21;
