ISO-10303-21;
HEADER;
FILE_DESCRIPTION( ( 'Unknown' ), '1' );
FILE_NAME( 'I:/User_Groups_Only/17_EMC_Product_&_Development/Documentations/1_ArtikelStamm/PG_1/WE_Ferrite_Block/Grafiken_Zeichnungen/CAD_Zeichnungswesen/CAD_aktuell/742725_Ferritkern/3d_view/742725.stp', 'Unknown', ( 'Unknown' ), ( 'Unknown' ), 'XStep 1.0', 'Unknown', '  ' );
FILE_SCHEMA( ( 'automotive_design' ) );
ENDSEC;
DATA;
#1 = MECHANICAL_DESIGN_GEOMETRIC_PRESENTATION_REPRESENTATION( ' ', ( #14, #15, #16, #17, #18, #19, #20, #21, #22, #23 ), #10 );
#2 = PRODUCT_DEFINITION_CONTEXT( '', #24, 'design' );
#3 = APPLICATION_PROTOCOL_DEFINITION( 'INTERNATIONAL STANDARD', 'automotive_design', 1994, #24 );
#4 = PRODUCT_CATEGORY_RELATIONSHIP( 'NONE', 'NONE', #25, #26 );
#5 = SHAPE_DEFINITION_REPRESENTATION( #27, #28 );
#6 = PRODUCT_DEFINITION_CONTEXT( '', #29, 'design' );
#7 = APPLICATION_PROTOCOL_DEFINITION( 'INTERNATIONAL STANDARD', 'automotive_design', 1994, #29 );
#8 = PRODUCT_CATEGORY_RELATIONSHIP( 'NONE', 'NONE', #30, #31 );
#9 = SHAPE_DEFINITION_REPRESENTATION( #32, #33 );
#10 =  ( GEOMETRIC_REPRESENTATION_CONTEXT( 3 )GLOBAL_UNCERTAINTY_ASSIGNED_CONTEXT( ( #36 ) )GLOBAL_UNIT_ASSIGNED_CONTEXT( ( #38, #39, #40 ) )REPRESENTATION_CONTEXT( 'NONE', 'WORKSPACE' ) );
#14 = STYLED_ITEM( '', ( #42 ), #43 );
#15 = STYLED_ITEM( '', ( #44 ), #45 );
#16 = STYLED_ITEM( '', ( #46 ), #47 );
#17 = STYLED_ITEM( '', ( #48 ), #49 );
#18 = STYLED_ITEM( '', ( #50 ), #51 );
#19 = STYLED_ITEM( '', ( #52 ), #53 );
#20 = STYLED_ITEM( '', ( #54 ), #55 );
#21 = STYLED_ITEM( '', ( #56 ), #57 );
#22 = STYLED_ITEM( '', ( #58 ), #59 );
#23 = STYLED_ITEM( '', ( #60 ), #61 );
#24 = APPLICATION_CONTEXT( ' ' );
#25 = PRODUCT_CATEGORY( 'part', 'NONE' );
#26 = PRODUCT_RELATED_PRODUCT_CATEGORY( 'detail', ' ', ( #62 ) );
#27 = PRODUCT_DEFINITION_SHAPE( 'NONE', 'NONE', #63 );
#28 = ADVANCED_BREP_SHAPE_REPRESENTATION( 'Assem1', ( #64, #65, #66 ), #10 );
#29 = APPLICATION_CONTEXT( ' ' );
#30 = PRODUCT_CATEGORY( 'part', 'NONE' );
#31 = PRODUCT_RELATED_PRODUCT_CATEGORY( 'detail', ' ', ( #67 ) );
#32 = PRODUCT_DEFINITION_SHAPE( 'NONE', 'NONE', #68 );
#33 = ADVANCED_BREP_SHAPE_REPRESENTATION( 'Ferrit', ( #69 ), #10 );
#36 = UNCERTAINTY_MEASURE_WITH_UNIT( LENGTH_MEASURE( 0.00100000000000000 ), #38, '', '' );
#38 =  ( CONVERSION_BASED_UNIT( 'MILLIMETRE', #72 )LENGTH_UNIT(  )NAMED_UNIT( #75 ) );
#39 =  ( NAMED_UNIT( #77 )PLANE_ANGLE_UNIT(  )SI_UNIT( $, .RADIAN. ) );
#40 =  ( NAMED_UNIT( #77 )SOLID_ANGLE_UNIT(  )SI_UNIT( $, .STERADIAN. ) );
#42 = PRESENTATION_STYLE_ASSIGNMENT( ( #83 ) );
#43 = ADVANCED_FACE( '', ( #84 ), #85, .F. );
#44 = PRESENTATION_STYLE_ASSIGNMENT( ( #86 ) );
#45 = ADVANCED_FACE( '', ( #87 ), #88, .T. );
#46 = PRESENTATION_STYLE_ASSIGNMENT( ( #89 ) );
#47 = ADVANCED_FACE( '', ( #90 ), #91, .T. );
#48 = PRESENTATION_STYLE_ASSIGNMENT( ( #92 ) );
#49 = ADVANCED_FACE( '', ( #93 ), #94, .T. );
#50 = PRESENTATION_STYLE_ASSIGNMENT( ( #95 ) );
#51 = ADVANCED_FACE( '', ( #96 ), #97, .T. );
#52 = PRESENTATION_STYLE_ASSIGNMENT( ( #98 ) );
#53 = ADVANCED_FACE( '', ( #99 ), #100, .F. );
#54 = PRESENTATION_STYLE_ASSIGNMENT( ( #101 ) );
#55 = ADVANCED_FACE( '', ( #102 ), #103, .F. );
#56 = PRESENTATION_STYLE_ASSIGNMENT( ( #104 ) );
#57 = ADVANCED_FACE( '', ( #105 ), #106, .F. );
#58 = PRESENTATION_STYLE_ASSIGNMENT( ( #107 ) );
#59 = ADVANCED_FACE( '', ( #108 ), #109, .T. );
#60 = PRESENTATION_STYLE_ASSIGNMENT( ( #110 ) );
#61 = ADVANCED_FACE( '', ( #111 ), #112, .F. );
#62 = PRODUCT( 'Assem1', 'Assem1', 'PART-Assem1-DESC', ( #113 ) );
#63 = PRODUCT_DEFINITION( 'NONE', 'NONE', #114, #2 );
#64 = MAPPED_ITEM( '', #115, #116 );
#65 = MAPPED_ITEM( '', #117, #118 );
#66 = AXIS2_PLACEMENT_3D( '', #119, #120, #121 );
#67 = PRODUCT( 'Ferrit', 'Ferrit', 'PART-Ferrit-DESC', ( #122 ) );
#68 = PRODUCT_DEFINITION( 'NONE', 'NONE', #123, #6 );
#69 = MANIFOLD_SOLID_BREP( 'Ferrit', #124 );
#72 = LENGTH_MEASURE_WITH_UNIT( LENGTH_MEASURE( 1.00000000000000 ), #125 );
#75 = DIMENSIONAL_EXPONENTS( 1.00000000000000, 0.000000000000000, 0.000000000000000, 0.000000000000000, 0.000000000000000, 0.000000000000000, 0.000000000000000 );
#77 = DIMENSIONAL_EXPONENTS( 0.000000000000000, 0.000000000000000, 0.000000000000000, 0.000000000000000, 0.000000000000000, 0.000000000000000, 0.000000000000000 );
#83 = SURFACE_STYLE_USAGE( .BOTH., #126 );
#84 = FACE_OUTER_BOUND( '', #127, .T. );
#85 = PLANE( '', #128 );
#86 = SURFACE_STYLE_USAGE( .BOTH., #129 );
#87 = FACE_OUTER_BOUND( '', #130, .T. );
#88 = PLANE( '', #131 );
#89 = SURFACE_STYLE_USAGE( .BOTH., #132 );
#90 = FACE_OUTER_BOUND( '', #133, .T. );
#91 = PLANE( '', #134 );
#92 = SURFACE_STYLE_USAGE( .BOTH., #135 );
#93 = FACE_OUTER_BOUND( '', #136, .T. );
#94 = PLANE( '', #137 );
#95 = SURFACE_STYLE_USAGE( .BOTH., #138 );
#96 = FACE_OUTER_BOUND( '', #139, .T. );
#97 = PLANE( '', #140 );
#98 = SURFACE_STYLE_USAGE( .BOTH., #141 );
#99 = FACE_OUTER_BOUND( '', #142, .T. );
#100 = PLANE( '', #143 );
#101 = SURFACE_STYLE_USAGE( .BOTH., #144 );
#102 = FACE_OUTER_BOUND( '', #145, .T. );
#103 = PLANE( '', #146 );
#104 = SURFACE_STYLE_USAGE( .BOTH., #147 );
#105 = FACE_OUTER_BOUND( '', #148, .T. );
#106 = PLANE( '', #149 );
#107 = SURFACE_STYLE_USAGE( .BOTH., #150 );
#108 = FACE_OUTER_BOUND( '', #151, .T. );
#109 = PLANE( '', #152 );
#110 = SURFACE_STYLE_USAGE( .BOTH., #153 );
#111 = FACE_OUTER_BOUND( '', #154, .T. );
#112 = PLANE( '', #155 );
#113 = PRODUCT_CONTEXT( '', #24, 'mechanical' );
#114 = PRODUCT_DEFINITION_FORMATION_WITH_SPECIFIED_SOURCE( ' ', 'NONE', #62, .NOT_KNOWN. );
#115 = REPRESENTATION_MAP( #66, #33 );
#116 = AXIS2_PLACEMENT_3D( '', #156, #157, #158 );
#117 = REPRESENTATION_MAP( #66, #33 );
#118 = AXIS2_PLACEMENT_3D( '', #159, #160, #161 );
#119 = CARTESIAN_POINT( '', ( 0.000000000000000, 0.000000000000000, 0.000000000000000 ) );
#120 = DIRECTION( '', ( 0.000000000000000, 0.000000000000000, 1.00000000000000 ) );
#121 = DIRECTION( '', ( 1.00000000000000, 0.000000000000000, 0.000000000000000 ) );
#122 = PRODUCT_CONTEXT( '', #29, 'mechanical' );
#123 = PRODUCT_DEFINITION_FORMATION_WITH_SPECIFIED_SOURCE( ' ', 'NONE', #67, .NOT_KNOWN. );
#124 = CLOSED_SHELL( '', ( #45, #43, #51, #55, #59, #57, #53, #61, #47, #49 ) );
#125 =  ( NAMED_UNIT( #75 )LENGTH_UNIT(  )SI_UNIT( .MILLI., .METRE. ) );
#126 = SURFACE_SIDE_STYLE( '', ( #163 ) );
#127 = EDGE_LOOP( '', ( #164, #165, #166, #167 ) );
#128 = AXIS2_PLACEMENT_3D( '', #168, #169, #170 );
#129 = SURFACE_SIDE_STYLE( '', ( #171 ) );
#130 = EDGE_LOOP( '', ( #172, #173, #174, #175 ) );
#131 = AXIS2_PLACEMENT_3D( '', #176, #177, #178 );
#132 = SURFACE_SIDE_STYLE( '', ( #179 ) );
#133 = EDGE_LOOP( '', ( #180, #181, #182, #183 ) );
#134 = AXIS2_PLACEMENT_3D( '', #184, #185, #186 );
#135 = SURFACE_SIDE_STYLE( '', ( #187 ) );
#136 = EDGE_LOOP( '', ( #188, #189, #190, #191 ) );
#137 = AXIS2_PLACEMENT_3D( '', #192, #193, #194 );
#138 = SURFACE_SIDE_STYLE( '', ( #195 ) );
#139 = EDGE_LOOP( '', ( #196, #197, #198, #199 ) );
#140 = AXIS2_PLACEMENT_3D( '', #200, #201, #202 );
#141 = SURFACE_SIDE_STYLE( '', ( #203 ) );
#142 = EDGE_LOOP( '', ( #204, #205, #206, #207 ) );
#143 = AXIS2_PLACEMENT_3D( '', #208, #209, #210 );
#144 = SURFACE_SIDE_STYLE( '', ( #211 ) );
#145 = EDGE_LOOP( '', ( #212, #213, #214, #215, #216, #217, #218, #219 ) );
#146 = AXIS2_PLACEMENT_3D( '', #220, #221, #222 );
#147 = SURFACE_SIDE_STYLE( '', ( #223 ) );
#148 = EDGE_LOOP( '', ( #224, #225, #226, #227, #228, #229, #230, #231 ) );
#149 = AXIS2_PLACEMENT_3D( '', #232, #233, #234 );
#150 = SURFACE_SIDE_STYLE( '', ( #235 ) );
#151 = EDGE_LOOP( '', ( #236, #237, #238, #239 ) );
#152 = AXIS2_PLACEMENT_3D( '', #240, #241, #242 );
#153 = SURFACE_SIDE_STYLE( '', ( #243 ) );
#154 = EDGE_LOOP( '', ( #244, #245, #246, #247 ) );
#155 = AXIS2_PLACEMENT_3D( '', #248, #249, #250 );
#156 = CARTESIAN_POINT( '', ( 0.000000000000000, 0.000000000000000, 0.000000000000000 ) );
#157 = DIRECTION( '', ( 0.000000000000000, 0.000000000000000, 1.00000000000000 ) );
#158 = DIRECTION( '', ( 1.00000000000000, 0.000000000000000, 0.000000000000000 ) );
#159 = CARTESIAN_POINT( '', ( 9.75781955236954E-016, 1.08420217248550E-016, 25.4000000000000 ) );
#160 = DIRECTION( '', ( 1.52254366890983E-016, 5.44037347816316E-017, -1.00000000000000 ) );
#161 = DIRECTION( '', ( -1.00000000000000, 1.11022302462516E-016, -1.52254366890983E-016 ) );
#163 = SURFACE_STYLE_FILL_AREA( #251 );
#164 = ORIENTED_EDGE( '', *, *, #252, .T. );
#165 = ORIENTED_EDGE( '', *, *, #253, .F. );
#166 = ORIENTED_EDGE( '', *, *, #254, .F. );
#167 = ORIENTED_EDGE( '', *, *, #255, .T. );
#168 = CARTESIAN_POINT( '', ( -26.6000000000000, 15.8500000000000, 12.7000000000000 ) );
#169 = DIRECTION( '', ( 1.00000000000000, 0.000000000000000, 0.000000000000000 ) );
#170 = DIRECTION( '', ( 0.000000000000000, 0.000000000000000, -1.00000000000000 ) );
#171 = SURFACE_STYLE_FILL_AREA( #256 );
#172 = ORIENTED_EDGE( '', *, *, #257, .T. );
#173 = ORIENTED_EDGE( '', *, *, #258, .T. );
#174 = ORIENTED_EDGE( '', *, *, #254, .T. );
#175 = ORIENTED_EDGE( '', *, *, #259, .T. );
#176 = CARTESIAN_POINT( '', ( -26.6000000000000, -15.8500000000000, 12.7000000000000 ) );
#177 = DIRECTION( '', ( 0.000000000000000, 0.000000000000000, 1.00000000000000 ) );
#178 = DIRECTION( '', ( 1.00000000000000, 0.000000000000000, 0.000000000000000 ) );
#179 = SURFACE_STYLE_FILL_AREA( #260 );
#180 = ORIENTED_EDGE( '', *, *, #261, .T. );
#181 = ORIENTED_EDGE( '', *, *, #262, .T. );
#182 = ORIENTED_EDGE( '', *, *, #263, .F. );
#183 = ORIENTED_EDGE( '', *, *, #257, .F. );
#184 = CARTESIAN_POINT( '', ( -16.7000000000000, -63.2172444828150, 12.7000000000000 ) );
#185 = DIRECTION( '', ( 1.00000000000000, 0.000000000000000, 0.000000000000000 ) );
#186 = DIRECTION( '', ( 0.000000000000000, 0.000000000000000, -1.00000000000000 ) );
#187 = SURFACE_STYLE_FILL_AREA( #264 );
#188 = ORIENTED_EDGE( '', *, *, #265, .T. );
#189 = ORIENTED_EDGE( '', *, *, #266, .T. );
#190 = ORIENTED_EDGE( '', *, *, #267, .F. );
#191 = ORIENTED_EDGE( '', *, *, #262, .F. );
#192 = CARTESIAN_POINT( '', ( -16.7000000000000, -63.2172444828150, 9.20000000000000 ) );
#193 = DIRECTION( '', ( 0.000000000000000, 0.000000000000000, 1.00000000000000 ) );
#194 = DIRECTION( '', ( 1.00000000000000, 0.000000000000000, 0.000000000000000 ) );
#195 = SURFACE_STYLE_FILL_AREA( #268 );
#196 = ORIENTED_EDGE( '', *, *, #269, .T. );
#197 = ORIENTED_EDGE( '', *, *, #270, .F. );
#198 = ORIENTED_EDGE( '', *, *, #271, .F. );
#199 = ORIENTED_EDGE( '', *, *, #266, .F. );
#200 = CARTESIAN_POINT( '', ( 16.7000000000000, -63.2172444828150, 9.20000000000000 ) );
#201 = DIRECTION( '', ( -1.00000000000000, 0.000000000000000, 0.000000000000000 ) );
#202 = DIRECTION( '', ( 0.000000000000000, 0.000000000000000, 1.00000000000000 ) );
#203 = SURFACE_STYLE_FILL_AREA( #272 );
#204 = ORIENTED_EDGE( '', *, *, #252, .F. );
#205 = ORIENTED_EDGE( '', *, *, #273, .F. );
#206 = ORIENTED_EDGE( '', *, *, #274, .F. );
#207 = ORIENTED_EDGE( '', *, *, #275, .F. );
#208 = CARTESIAN_POINT( '', ( -26.6000000000000, -15.8500000000000, 0.000000000000000 ) );
#209 = DIRECTION( '', ( 0.000000000000000, 0.000000000000000, 1.00000000000000 ) );
#210 = DIRECTION( '', ( 1.00000000000000, 0.000000000000000, 0.000000000000000 ) );
#211 = SURFACE_STYLE_FILL_AREA( #276 );
#212 = ORIENTED_EDGE( '', *, *, #258, .F. );
#213 = ORIENTED_EDGE( '', *, *, #263, .T. );
#214 = ORIENTED_EDGE( '', *, *, #267, .T. );
#215 = ORIENTED_EDGE( '', *, *, #271, .T. );
#216 = ORIENTED_EDGE( '', *, *, #277, .F. );
#217 = ORIENTED_EDGE( '', *, *, #278, .T. );
#218 = ORIENTED_EDGE( '', *, *, #273, .T. );
#219 = ORIENTED_EDGE( '', *, *, #255, .F. );
#220 = CARTESIAN_POINT( '', ( 26.6000000000000, 15.8500000000000, 12.7000000000000 ) );
#221 = DIRECTION( '', ( -6.52151682698048E-017, -1.00000000000000, 0.000000000000000 ) );
#222 = DIRECTION( '', ( 1.00000000000000, -6.52151682698048E-017, 0.000000000000000 ) );
#223 = SURFACE_STYLE_FILL_AREA( #279 );
#224 = ORIENTED_EDGE( '', *, *, #261, .F. );
#225 = ORIENTED_EDGE( '', *, *, #259, .F. );
#226 = ORIENTED_EDGE( '', *, *, #253, .T. );
#227 = ORIENTED_EDGE( '', *, *, #275, .T. );
#228 = ORIENTED_EDGE( '', *, *, #280, .F. );
#229 = ORIENTED_EDGE( '', *, *, #281, .F. );
#230 = ORIENTED_EDGE( '', *, *, #269, .F. );
#231 = ORIENTED_EDGE( '', *, *, #265, .F. );
#232 = CARTESIAN_POINT( '', ( -26.6000000000000, -15.8500000000000, 12.7000000000000 ) );
#233 = DIRECTION( '', ( -6.52151682698048E-017, 1.00000000000000, 0.000000000000000 ) );
#234 = DIRECTION( '', ( -1.00000000000000, -6.52151682698048E-017, 0.000000000000000 ) );
#235 = SURFACE_STYLE_FILL_AREA( #282 );
#236 = ORIENTED_EDGE( '', *, *, #277, .T. );
#237 = ORIENTED_EDGE( '', *, *, #270, .T. );
#238 = ORIENTED_EDGE( '', *, *, #281, .T. );
#239 = ORIENTED_EDGE( '', *, *, #283, .T. );
#240 = CARTESIAN_POINT( '', ( -26.6000000000000, -15.8500000000000, 12.7000000000000 ) );
#241 = DIRECTION( '', ( 0.000000000000000, 0.000000000000000, 1.00000000000000 ) );
#242 = DIRECTION( '', ( 1.00000000000000, 0.000000000000000, 0.000000000000000 ) );
#243 = SURFACE_STYLE_FILL_AREA( #284 );
#244 = ORIENTED_EDGE( '', *, *, #274, .T. );
#245 = ORIENTED_EDGE( '', *, *, #278, .F. );
#246 = ORIENTED_EDGE( '', *, *, #283, .F. );
#247 = ORIENTED_EDGE( '', *, *, #280, .T. );
#248 = CARTESIAN_POINT( '', ( 26.6000000000000, -15.8500000000000, 12.7000000000000 ) );
#249 = DIRECTION( '', ( -1.00000000000000, 0.000000000000000, 0.000000000000000 ) );
#250 = DIRECTION( '', ( 0.000000000000000, 0.000000000000000, 1.00000000000000 ) );
#251 = FILL_AREA_STYLE( '', ( #285 ) );
#252 = EDGE_CURVE( '', #286, #287, #288, .T. );
#253 = EDGE_CURVE( '', #289, #287, #290, .T. );
#254 = EDGE_CURVE( '', #291, #289, #292, .T. );
#255 = EDGE_CURVE( '', #291, #286, #293, .T. );
#256 = FILL_AREA_STYLE( '', ( #294 ) );
#257 = EDGE_CURVE( '', #295, #296, #297, .T. );
#258 = EDGE_CURVE( '', #296, #291, #298, .T. );
#259 = EDGE_CURVE( '', #289, #295, #299, .T. );
#260 = FILL_AREA_STYLE( '', ( #300 ) );
#261 = EDGE_CURVE( '', #295, #301, #302, .T. );
#262 = EDGE_CURVE( '', #301, #303, #304, .T. );
#263 = EDGE_CURVE( '', #296, #303, #305, .T. );
#264 = FILL_AREA_STYLE( '', ( #306 ) );
#265 = EDGE_CURVE( '', #301, #307, #308, .T. );
#266 = EDGE_CURVE( '', #307, #309, #310, .T. );
#267 = EDGE_CURVE( '', #303, #309, #311, .T. );
#268 = FILL_AREA_STYLE( '', ( #312 ) );
#269 = EDGE_CURVE( '', #307, #313, #314, .T. );
#270 = EDGE_CURVE( '', #315, #313, #316, .T. );
#271 = EDGE_CURVE( '', #309, #315, #317, .T. );
#272 = FILL_AREA_STYLE( '', ( #318 ) );
#273 = EDGE_CURVE( '', #319, #286, #320, .T. );
#274 = EDGE_CURVE( '', #321, #319, #322, .T. );
#275 = EDGE_CURVE( '', #287, #321, #323, .T. );
#276 = FILL_AREA_STYLE( '', ( #324 ) );
#277 = EDGE_CURVE( '', #325, #315, #326, .T. );
#278 = EDGE_CURVE( '', #325, #319, #327, .T. );
#279 = FILL_AREA_STYLE( '', ( #328 ) );
#280 = EDGE_CURVE( '', #329, #321, #330, .T. );
#281 = EDGE_CURVE( '', #313, #329, #331, .T. );
#282 = FILL_AREA_STYLE( '', ( #332 ) );
#283 = EDGE_CURVE( '', #329, #325, #333, .T. );
#284 = FILL_AREA_STYLE( '', ( #334 ) );
#285 = FILL_AREA_STYLE_COLOUR( '', #335 );
#286 = VERTEX_POINT( '', #336 );
#287 = VERTEX_POINT( '', #337 );
#288 = LINE( '', #338, #339 );
#289 = VERTEX_POINT( '', #340 );
#290 = LINE( '', #341, #342 );
#291 = VERTEX_POINT( '', #343 );
#292 = LINE( '', #344, #345 );
#293 = LINE( '', #346, #347 );
#294 = FILL_AREA_STYLE_COLOUR( '', #348 );
#295 = VERTEX_POINT( '', #349 );
#296 = VERTEX_POINT( '', #350 );
#297 = LINE( '', #351, #352 );
#298 = LINE( '', #353, #354 );
#299 = LINE( '', #355, #356 );
#300 = FILL_AREA_STYLE_COLOUR( '', #357 );
#301 = VERTEX_POINT( '', #358 );
#302 = LINE( '', #359, #360 );
#303 = VERTEX_POINT( '', #361 );
#304 = LINE( '', #362, #363 );
#305 = LINE( '', #364, #365 );
#306 = FILL_AREA_STYLE_COLOUR( '', #366 );
#307 = VERTEX_POINT( '', #367 );
#308 = LINE( '', #368, #369 );
#309 = VERTEX_POINT( '', #370 );
#310 = LINE( '', #371, #372 );
#311 = LINE( '', #373, #374 );
#312 = FILL_AREA_STYLE_COLOUR( '', #375 );
#313 = VERTEX_POINT( '', #376 );
#314 = LINE( '', #377, #378 );
#315 = VERTEX_POINT( '', #379 );
#316 = LINE( '', #380, #381 );
#317 = LINE( '', #382, #383 );
#318 = FILL_AREA_STYLE_COLOUR( '', #384 );
#319 = VERTEX_POINT( '', #385 );
#320 = LINE( '', #386, #387 );
#321 = VERTEX_POINT( '', #388 );
#322 = LINE( '', #389, #390 );
#323 = LINE( '', #391, #392 );
#324 = FILL_AREA_STYLE_COLOUR( '', #393 );
#325 = VERTEX_POINT( '', #394 );
#326 = LINE( '', #395, #396 );
#327 = LINE( '', #397, #398 );
#328 = FILL_AREA_STYLE_COLOUR( '', #399 );
#329 = VERTEX_POINT( '', #400 );
#330 = LINE( '', #401, #402 );
#331 = LINE( '', #403, #404 );
#332 = FILL_AREA_STYLE_COLOUR( '', #405 );
#333 = LINE( '', #406, #407 );
#334 = FILL_AREA_STYLE_COLOUR( '', #408 );
#335 = COLOUR_RGB( '', 0.200000002980232, 0.200000002980232, 0.200000002980232 );
#336 = CARTESIAN_POINT( '', ( -26.6000000000000, 15.8500000000000, 0.000000000000000 ) );
#337 = CARTESIAN_POINT( '', ( -26.6000000000000, -15.8500000000000, 0.000000000000000 ) );
#338 = CARTESIAN_POINT( '', ( -26.6000000000000, 15.8500000000000, 0.000000000000000 ) );
#339 = VECTOR( '', #409, 1000.00000000000 );
#340 = CARTESIAN_POINT( '', ( -26.6000000000000, -15.8500000000000, 12.7000000000000 ) );
#341 = CARTESIAN_POINT( '', ( -26.6000000000000, -15.8500000000000, 12.7000000000000 ) );
#342 = VECTOR( '', #410, 1000.00000000000 );
#343 = CARTESIAN_POINT( '', ( -26.6000000000000, 15.8500000000000, 12.7000000000000 ) );
#344 = CARTESIAN_POINT( '', ( -26.6000000000000, 15.8500000000000, 12.7000000000000 ) );
#345 = VECTOR( '', #411, 1000.00000000000 );
#346 = CARTESIAN_POINT( '', ( -26.6000000000000, 15.8500000000000, 12.7000000000000 ) );
#347 = VECTOR( '', #412, 1000.00000000000 );
#348 = COLOUR_RGB( '', 0.200000002980232, 0.200000002980232, 0.200000002980232 );
#349 = CARTESIAN_POINT( '', ( -16.7000000000000, -15.8500000000000, 12.7000000000000 ) );
#350 = CARTESIAN_POINT( '', ( -16.7000000000000, 15.8500000000000, 12.7000000000000 ) );
#351 = CARTESIAN_POINT( '', ( -16.7000000000000, -15.8500000000000, 12.7000000000000 ) );
#352 = VECTOR( '', #413, 1000.00000000000 );
#353 = CARTESIAN_POINT( '', ( 26.6000000000000, 15.8500000000000, 12.7000000000000 ) );
#354 = VECTOR( '', #414, 1000.00000000000 );
#355 = CARTESIAN_POINT( '', ( -26.6000000000000, -15.8500000000000, 12.7000000000000 ) );
#356 = VECTOR( '', #415, 1000.00000000000 );
#357 = COLOUR_RGB( '', 0.200000002980232, 0.200000002980232, 0.200000002980232 );
#358 = CARTESIAN_POINT( '', ( -16.7000000000000, -15.8500000000000, 9.20000000000000 ) );
#359 = CARTESIAN_POINT( '', ( -16.7000000000000, -15.8500000000000, 12.7000000000000 ) );
#360 = VECTOR( '', #416, 1000.00000000000 );
#361 = CARTESIAN_POINT( '', ( -16.7000000000000, 15.8500000000000, 9.20000000000000 ) );
#362 = CARTESIAN_POINT( '', ( -16.7000000000000, -63.2172444828150, 9.20000000000000 ) );
#363 = VECTOR( '', #417, 1000.00000000000 );
#364 = CARTESIAN_POINT( '', ( -16.7000000000000, 15.8500000000000, 12.7000000000000 ) );
#365 = VECTOR( '', #418, 1000.00000000000 );
#366 = COLOUR_RGB( '', 0.200000002980232, 0.200000002980232, 0.200000002980232 );
#367 = CARTESIAN_POINT( '', ( 16.7000000000000, -15.8500000000000, 9.20000000000000 ) );
#368 = CARTESIAN_POINT( '', ( -26.6000000000000, -15.8500000000000, 9.20000000000000 ) );
#369 = VECTOR( '', #419, 1000.00000000000 );
#370 = CARTESIAN_POINT( '', ( 16.7000000000000, 15.8500000000000, 9.20000000000000 ) );
#371 = CARTESIAN_POINT( '', ( 16.7000000000000, -63.2172444828150, 9.20000000000000 ) );
#372 = VECTOR( '', #420, 1000.00000000000 );
#373 = CARTESIAN_POINT( '', ( 26.6000000000000, 15.8500000000000, 9.20000000000000 ) );
#374 = VECTOR( '', #421, 1000.00000000000 );
#375 = COLOUR_RGB( '', 0.200000002980232, 0.200000002980232, 0.200000002980232 );
#376 = CARTESIAN_POINT( '', ( 16.7000000000000, -15.8500000000000, 12.7000000000000 ) );
#377 = CARTESIAN_POINT( '', ( 16.7000000000000, -15.8500000000000, 12.7000000000000 ) );
#378 = VECTOR( '', #422, 1000.00000000000 );
#379 = CARTESIAN_POINT( '', ( 16.7000000000000, 15.8500000000000, 12.7000000000000 ) );
#380 = CARTESIAN_POINT( '', ( 16.7000000000000, -15.8500000000000, 12.7000000000000 ) );
#381 = VECTOR( '', #423, 1000.00000000000 );
#382 = CARTESIAN_POINT( '', ( 16.7000000000000, 15.8500000000000, 12.7000000000000 ) );
#383 = VECTOR( '', #424, 1000.00000000000 );
#384 = COLOUR_RGB( '', 0.200000002980232, 0.200000002980232, 0.200000002980232 );
#385 = CARTESIAN_POINT( '', ( 26.6000000000000, 15.8500000000000, 0.000000000000000 ) );
#386 = CARTESIAN_POINT( '', ( 26.6000000000000, 15.8500000000000, 0.000000000000000 ) );
#387 = VECTOR( '', #425, 1000.00000000000 );
#388 = CARTESIAN_POINT( '', ( 26.6000000000000, -15.8500000000000, 0.000000000000000 ) );
#389 = CARTESIAN_POINT( '', ( 26.6000000000000, -15.8500000000000, 0.000000000000000 ) );
#390 = VECTOR( '', #426, 1000.00000000000 );
#391 = CARTESIAN_POINT( '', ( -26.6000000000000, -15.8500000000000, 0.000000000000000 ) );
#392 = VECTOR( '', #427, 1000.00000000000 );
#393 = COLOUR_RGB( '', 0.200000002980232, 0.200000002980232, 0.200000002980232 );
#394 = CARTESIAN_POINT( '', ( 26.6000000000000, 15.8500000000000, 12.7000000000000 ) );
#395 = CARTESIAN_POINT( '', ( 26.6000000000000, 15.8500000000000, 12.7000000000000 ) );
#396 = VECTOR( '', #428, 1000.00000000000 );
#397 = CARTESIAN_POINT( '', ( 26.6000000000000, 15.8500000000000, 12.7000000000000 ) );
#398 = VECTOR( '', #429, 1000.00000000000 );
#399 = COLOUR_RGB( '', 0.200000002980232, 0.200000002980232, 0.200000002980232 );
#400 = CARTESIAN_POINT( '', ( 26.6000000000000, -15.8500000000000, 12.7000000000000 ) );
#401 = CARTESIAN_POINT( '', ( 26.6000000000000, -15.8500000000000, 12.7000000000000 ) );
#402 = VECTOR( '', #430, 1000.00000000000 );
#403 = CARTESIAN_POINT( '', ( -26.6000000000000, -15.8500000000000, 12.7000000000000 ) );
#404 = VECTOR( '', #431, 1000.00000000000 );
#405 = COLOUR_RGB( '', 0.200000002980232, 0.200000002980232, 0.200000002980232 );
#406 = CARTESIAN_POINT( '', ( 26.6000000000000, -15.8500000000000, 12.7000000000000 ) );
#407 = VECTOR( '', #432, 1000.00000000000 );
#408 = COLOUR_RGB( '', 0.200000002980232, 0.200000002980232, 0.200000002980232 );
#409 = DIRECTION( '', ( 0.000000000000000, -1.00000000000000, 0.000000000000000 ) );
#410 = DIRECTION( '', ( 0.000000000000000, 0.000000000000000, -1.00000000000000 ) );
#411 = DIRECTION( '', ( 0.000000000000000, -1.00000000000000, 0.000000000000000 ) );
#412 = DIRECTION( '', ( 0.000000000000000, 0.000000000000000, -1.00000000000000 ) );
#413 = DIRECTION( '', ( 0.000000000000000, 1.00000000000000, 0.000000000000000 ) );
#414 = DIRECTION( '', ( -1.00000000000000, 6.52151682698048E-017, 0.000000000000000 ) );
#415 = DIRECTION( '', ( 1.00000000000000, 6.52151682698048E-017, 0.000000000000000 ) );
#416 = DIRECTION( '', ( 0.000000000000000, 0.000000000000000, -1.00000000000000 ) );
#417 = DIRECTION( '', ( 0.000000000000000, 1.00000000000000, 0.000000000000000 ) );
#418 = DIRECTION( '', ( 0.000000000000000, 0.000000000000000, -1.00000000000000 ) );
#419 = DIRECTION( '', ( 1.00000000000000, 6.52151682698048E-017, 0.000000000000000 ) );
#420 = DIRECTION( '', ( 0.000000000000000, 1.00000000000000, 0.000000000000000 ) );
#421 = DIRECTION( '', ( 1.00000000000000, -6.52151682698048E-017, 0.000000000000000 ) );
#422 = DIRECTION( '', ( 0.000000000000000, 0.000000000000000, 1.00000000000000 ) );
#423 = DIRECTION( '', ( 0.000000000000000, -1.00000000000000, 0.000000000000000 ) );
#424 = DIRECTION( '', ( 0.000000000000000, 0.000000000000000, 1.00000000000000 ) );
#425 = DIRECTION( '', ( -1.00000000000000, 6.52151682698048E-017, 0.000000000000000 ) );
#426 = DIRECTION( '', ( 0.000000000000000, 1.00000000000000, 0.000000000000000 ) );
#427 = DIRECTION( '', ( 1.00000000000000, 6.52151682698048E-017, 0.000000000000000 ) );
#428 = DIRECTION( '', ( -1.00000000000000, 6.52151682698048E-017, 0.000000000000000 ) );
#429 = DIRECTION( '', ( 0.000000000000000, 0.000000000000000, -1.00000000000000 ) );
#430 = DIRECTION( '', ( 0.000000000000000, 0.000000000000000, -1.00000000000000 ) );
#431 = DIRECTION( '', ( 1.00000000000000, 6.52151682698048E-017, 0.000000000000000 ) );
#432 = DIRECTION( '', ( 0.000000000000000, 1.00000000000000, 0.000000000000000 ) );
ENDSEC;
END-ISO-10303-21;
