ISO-10303-21;
HEADER;
FILE_DESCRIPTION( ( 'Unknown' ), '1' );
FILE_NAME( 'I:/User_Groups_Only/17_EMC_Product_&_Development/Documentations/1_ArtikelStamm/PG_1/WE_Fe_RIB/Grafiken_Zeichnungen/CAD_Zeichnungswesen/CAD_aktuell/7427051/3d_view/7427051.stp', 'Unknown', ( 'Unknown' ), ( 'Unknown' ), 'XStep 1.0', 'Unknown', '  ' );
FILE_SCHEMA( ( 'automotive_design' ) );
ENDSEC;
DATA;
#1 = MECHANICAL_DESIGN_GEOMETRIC_PRESENTATION_REPRESENTATION( ' ', ( #10, #11, #12, #13, #14, #15, #16, #17 ), #6 );
#2 = PRODUCT_DEFINITION_CONTEXT( '', #18, 'design' );
#3 = APPLICATION_PROTOCOL_DEFINITION( 'INTERNATIONAL STANDARD', 'automotive_design', 1994, #18 );
#4 = PRODUCT_CATEGORY_RELATIONSHIP( 'NONE', 'NONE', #19, #20 );
#5 = SHAPE_DEFINITION_REPRESENTATION( #21, #22 );
#6 =  ( GEOMETRIC_REPRESENTATION_CONTEXT( 3 )GLOBAL_UNCERTAINTY_ASSIGNED_CONTEXT( ( #25 ) )GLOBAL_UNIT_ASSIGNED_CONTEXT( ( #27, #28, #29 ) )REPRESENTATION_CONTEXT( 'NONE', 'WORKSPACE' ) );
#10 = STYLED_ITEM( '', ( #31 ), #32 );
#11 = STYLED_ITEM( '', ( #33 ), #34 );
#12 = STYLED_ITEM( '', ( #35 ), #36 );
#13 = STYLED_ITEM( '', ( #37 ), #38 );
#14 = STYLED_ITEM( '', ( #39 ), #40 );
#15 = STYLED_ITEM( '', ( #41 ), #42 );
#16 = STYLED_ITEM( '', ( #43 ), #44 );
#17 = STYLED_ITEM( '', ( #45 ), #46 );
#18 = APPLICATION_CONTEXT( ' ' );
#19 = PRODUCT_CATEGORY( 'part', 'NONE' );
#20 = PRODUCT_RELATED_PRODUCT_CATEGORY( 'detail', ' ', ( #47 ) );
#21 = PRODUCT_DEFINITION_SHAPE( 'NONE', 'NONE', #48 );
#22 = ADVANCED_BREP_SHAPE_REPRESENTATION( '1', ( #49, #50 ), #6 );
#25 = UNCERTAINTY_MEASURE_WITH_UNIT( LENGTH_MEASURE( 0.00100000000000000 ), #27, '', '' );
#27 =  ( CONVERSION_BASED_UNIT( 'MILLIMETRE', #53 )LENGTH_UNIT(  )NAMED_UNIT( #56 ) );
#28 =  ( NAMED_UNIT( #58 )PLANE_ANGLE_UNIT(  )SI_UNIT( $, .RADIAN. ) );
#29 =  ( NAMED_UNIT( #58 )SOLID_ANGLE_UNIT(  )SI_UNIT( $, .STERADIAN. ) );
#31 = PRESENTATION_STYLE_ASSIGNMENT( ( #64 ) );
#32 = ADVANCED_FACE( '', ( #65 ), #66, .T. );
#33 = PRESENTATION_STYLE_ASSIGNMENT( ( #67 ) );
#34 = ADVANCED_FACE( '', ( #68, #69, #70 ), #71, .F. );
#35 = PRESENTATION_STYLE_ASSIGNMENT( ( #72 ) );
#36 = ADVANCED_FACE( '', ( #73, #74, #75 ), #76, .T. );
#37 = PRESENTATION_STYLE_ASSIGNMENT( ( #77 ) );
#38 = ADVANCED_FACE( '', ( #78, #79 ), #80, .F. );
#39 = PRESENTATION_STYLE_ASSIGNMENT( ( #81 ) );
#40 = ADVANCED_FACE( '', ( #82 ), #83, .T. );
#41 = PRESENTATION_STYLE_ASSIGNMENT( ( #84 ) );
#42 = ADVANCED_FACE( '', ( #85 ), #86, .F. );
#43 = PRESENTATION_STYLE_ASSIGNMENT( ( #87 ) );
#44 = ADVANCED_FACE( '', ( #88, #89 ), #90, .F. );
#45 = PRESENTATION_STYLE_ASSIGNMENT( ( #91 ) );
#46 = ADVANCED_FACE( '', ( #92 ), #93, .F. );
#47 = PRODUCT( '1', '1', 'PART-1-DESC', ( #94 ) );
#48 = PRODUCT_DEFINITION( 'NONE', 'NONE', #95, #2 );
#49 = MANIFOLD_SOLID_BREP( '1', #96 );
#50 = AXIS2_PLACEMENT_3D( '', #97, #98, #99 );
#53 = LENGTH_MEASURE_WITH_UNIT( LENGTH_MEASURE( 1.00000000000000 ), #100 );
#56 = DIMENSIONAL_EXPONENTS( 1.00000000000000, 0.000000000000000, 0.000000000000000, 0.000000000000000, 0.000000000000000, 0.000000000000000, 0.000000000000000 );
#58 = DIMENSIONAL_EXPONENTS( 0.000000000000000, 0.000000000000000, 0.000000000000000, 0.000000000000000, 0.000000000000000, 0.000000000000000, 0.000000000000000 );
#64 = SURFACE_STYLE_USAGE( .BOTH., #101 );
#65 = FACE_OUTER_BOUND( '', #102, .T. );
#66 = CYLINDRICAL_SURFACE( '', #103, 1.75000000000000 );
#67 = SURFACE_STYLE_USAGE( .BOTH., #104 );
#68 = FACE_BOUND( '', #105, .T. );
#69 = FACE_OUTER_BOUND( '', #106, .T. );
#70 = FACE_BOUND( '', #107, .T. );
#71 = PLANE( '', #108 );
#72 = SURFACE_STYLE_USAGE( .BOTH., #109 );
#73 = FACE_BOUND( '', #110, .T. );
#74 = FACE_OUTER_BOUND( '', #111, .T. );
#75 = FACE_BOUND( '', #112, .T. );
#76 = PLANE( '', #113 );
#77 = SURFACE_STYLE_USAGE( .BOTH., #114 );
#78 = FACE_OUTER_BOUND( '', #115, .T. );
#79 = FACE_OUTER_BOUND( '', #116, .T. );
#80 = CYLINDRICAL_SURFACE( '', #117, 0.900000000000000 );
#81 = SURFACE_STYLE_USAGE( .BOTH., #118 );
#82 = FACE_OUTER_BOUND( '', #119, .T. );
#83 = CYLINDRICAL_SURFACE( '', #120, 1.75000000000000 );
#84 = SURFACE_STYLE_USAGE( .BOTH., #121 );
#85 = FACE_OUTER_BOUND( '', #122, .T. );
#86 = PLANE( '', #123 );
#87 = SURFACE_STYLE_USAGE( .BOTH., #124 );
#88 = FACE_OUTER_BOUND( '', #125, .T. );
#89 = FACE_OUTER_BOUND( '', #126, .T. );
#90 = CYLINDRICAL_SURFACE( '', #127, 0.900000000000000 );
#91 = SURFACE_STYLE_USAGE( .BOTH., #128 );
#92 = FACE_OUTER_BOUND( '', #129, .T. );
#93 = PLANE( '', #130 );
#94 = PRODUCT_CONTEXT( '', #18, 'mechanical' );
#95 = PRODUCT_DEFINITION_FORMATION_WITH_SPECIFIED_SOURCE( ' ', 'NONE', #47, .NOT_KNOWN. );
#96 = CLOSED_SHELL( '', ( #46, #32, #34, #40, #36, #42, #38, #44 ) );
#97 = CARTESIAN_POINT( '', ( 0.000000000000000, 0.000000000000000, 0.000000000000000 ) );
#98 = DIRECTION( '', ( 0.000000000000000, 0.000000000000000, 1.00000000000000 ) );
#99 = DIRECTION( '', ( 1.00000000000000, 0.000000000000000, 0.000000000000000 ) );
#100 =  ( NAMED_UNIT( #56 )LENGTH_UNIT(  )SI_UNIT( .MILLI., .METRE. ) );
#101 = SURFACE_SIDE_STYLE( '', ( #132 ) );
#102 = EDGE_LOOP( '', ( #133, #134, #135, #136 ) );
#103 = AXIS2_PLACEMENT_3D( '', #137, #138, #139 );
#104 = SURFACE_SIDE_STYLE( '', ( #140 ) );
#105 = EDGE_LOOP( '', ( #141 ) );
#106 = EDGE_LOOP( '', ( #142, #143, #144, #145 ) );
#107 = EDGE_LOOP( '', ( #146 ) );
#108 = AXIS2_PLACEMENT_3D( '', #147, #148, #149 );
#109 = SURFACE_SIDE_STYLE( '', ( #150 ) );
#110 = EDGE_LOOP( '', ( #151 ) );
#111 = EDGE_LOOP( '', ( #152, #153, #154, #155 ) );
#112 = EDGE_LOOP( '', ( #156 ) );
#113 = AXIS2_PLACEMENT_3D( '', #157, #158, #159 );
#114 = SURFACE_SIDE_STYLE( '', ( #160 ) );
#115 = EDGE_LOOP( '', ( #161 ) );
#116 = EDGE_LOOP( '', ( #162 ) );
#117 = AXIS2_PLACEMENT_3D( '', #163, #164, #165 );
#118 = SURFACE_SIDE_STYLE( '', ( #166 ) );
#119 = EDGE_LOOP( '', ( #167, #168, #169, #170 ) );
#120 = AXIS2_PLACEMENT_3D( '', #171, #172, #173 );
#121 = SURFACE_SIDE_STYLE( '', ( #174 ) );
#122 = EDGE_LOOP( '', ( #175, #176, #177, #178 ) );
#123 = AXIS2_PLACEMENT_3D( '', #179, #180, #181 );
#124 = SURFACE_SIDE_STYLE( '', ( #182 ) );
#125 = EDGE_LOOP( '', ( #183 ) );
#126 = EDGE_LOOP( '', ( #184 ) );
#127 = AXIS2_PLACEMENT_3D( '', #185, #186, #187 );
#128 = SURFACE_SIDE_STYLE( '', ( #188 ) );
#129 = EDGE_LOOP( '', ( #189, #190, #191, #192 ) );
#130 = AXIS2_PLACEMENT_3D( '', #193, #194, #195 );
#132 = SURFACE_STYLE_FILL_AREA( #196 );
#133 = ORIENTED_EDGE( '', *, *, #197, .F. );
#134 = ORIENTED_EDGE( '', *, *, #198, .F. );
#135 = ORIENTED_EDGE( '', *, *, #199, .F. );
#136 = ORIENTED_EDGE( '', *, *, #200, .F. );
#137 = CARTESIAN_POINT( '', ( -1.45000000000000, -2.16840434497101E-016, 5.00000000000000 ) );
#138 = DIRECTION( '', ( -0.000000000000000, -0.000000000000000, 1.00000000000000 ) );
#139 = DIRECTION( '', ( -1.00000000000000, 0.000000000000000, 0.000000000000000 ) );
#140 = SURFACE_STYLE_FILL_AREA( #201 );
#141 = ORIENTED_EDGE( '', *, *, #202, .T. );
#142 = ORIENTED_EDGE( '', *, *, #203, .F. );
#143 = ORIENTED_EDGE( '', *, *, #204, .T. );
#144 = ORIENTED_EDGE( '', *, *, #205, .F. );
#145 = ORIENTED_EDGE( '', *, *, #199, .T. );
#146 = ORIENTED_EDGE( '', *, *, #206, .F. );
#147 = CARTESIAN_POINT( '', ( -3.20000000000000, -1.75000000000000, 0.000000000000000 ) );
#148 = DIRECTION( '', ( 0.000000000000000, 0.000000000000000, 1.00000000000000 ) );
#149 = DIRECTION( '', ( 1.00000000000000, 0.000000000000000, 0.000000000000000 ) );
#150 = SURFACE_STYLE_FILL_AREA( #207 );
#151 = ORIENTED_EDGE( '', *, *, #208, .F. );
#152 = ORIENTED_EDGE( '', *, *, #209, .T. );
#153 = ORIENTED_EDGE( '', *, *, #210, .T. );
#154 = ORIENTED_EDGE( '', *, *, #197, .T. );
#155 = ORIENTED_EDGE( '', *, *, #211, .T. );
#156 = ORIENTED_EDGE( '', *, *, #212, .T. );
#157 = CARTESIAN_POINT( '', ( -3.20000000000000, -1.75000000000000, 5.00000000000000 ) );
#158 = DIRECTION( '', ( 0.000000000000000, 0.000000000000000, 1.00000000000000 ) );
#159 = DIRECTION( '', ( 1.00000000000000, 0.000000000000000, 0.000000000000000 ) );
#160 = SURFACE_STYLE_FILL_AREA( #213 );
#161 = ORIENTED_EDGE( '', *, *, #208, .T. );
#162 = ORIENTED_EDGE( '', *, *, #202, .F. );
#163 = CARTESIAN_POINT( '', ( 1.50000000000000, -1.83690953073357E-016, 5.00000000000000 ) );
#164 = DIRECTION( '', ( -0.000000000000000, -0.000000000000000, 1.00000000000000 ) );
#165 = DIRECTION( '', ( -1.00000000000000, 0.000000000000000, 0.000000000000000 ) );
#166 = SURFACE_STYLE_FILL_AREA( #214 );
#167 = ORIENTED_EDGE( '', *, *, #209, .F. );
#168 = ORIENTED_EDGE( '', *, *, #215, .F. );
#169 = ORIENTED_EDGE( '', *, *, #204, .F. );
#170 = ORIENTED_EDGE( '', *, *, #216, .F. );
#171 = CARTESIAN_POINT( '', ( 1.45000000000000, 2.16840434497101E-016, 5.00000000000000 ) );
#172 = DIRECTION( '', ( -0.000000000000000, -0.000000000000000, 1.00000000000000 ) );
#173 = DIRECTION( '', ( -1.00000000000000, 0.000000000000000, 0.000000000000000 ) );
#174 = SURFACE_STYLE_FILL_AREA( #217 );
#175 = ORIENTED_EDGE( '', *, *, #210, .F. );
#176 = ORIENTED_EDGE( '', *, *, #216, .T. );
#177 = ORIENTED_EDGE( '', *, *, #203, .T. );
#178 = ORIENTED_EDGE( '', *, *, #198, .T. );
#179 = CARTESIAN_POINT( '', ( 3.20000000000000, 1.75000000000000, 5.00000000000000 ) );
#180 = DIRECTION( '', ( -6.77626357803440E-017, -1.00000000000000, 0.000000000000000 ) );
#181 = DIRECTION( '', ( 1.00000000000000, -6.77626357803440E-017, 0.000000000000000 ) );
#182 = SURFACE_STYLE_FILL_AREA( #218 );
#183 = ORIENTED_EDGE( '', *, *, #212, .F. );
#184 = ORIENTED_EDGE( '', *, *, #206, .T. );
#185 = CARTESIAN_POINT( '', ( -1.50000000000000, 0.000000000000000, 5.00000000000000 ) );
#186 = DIRECTION( '', ( -0.000000000000000, -0.000000000000000, 1.00000000000000 ) );
#187 = DIRECTION( '', ( -1.00000000000000, 0.000000000000000, 0.000000000000000 ) );
#188 = SURFACE_STYLE_FILL_AREA( #219 );
#189 = ORIENTED_EDGE( '', *, *, #211, .F. );
#190 = ORIENTED_EDGE( '', *, *, #200, .T. );
#191 = ORIENTED_EDGE( '', *, *, #205, .T. );
#192 = ORIENTED_EDGE( '', *, *, #215, .T. );
#193 = CARTESIAN_POINT( '', ( -3.20000000000000, -1.75000000000000, 5.00000000000000 ) );
#194 = DIRECTION( '', ( -6.77626357803440E-017, 1.00000000000000, 0.000000000000000 ) );
#195 = DIRECTION( '', ( -1.00000000000000, -6.77626357803440E-017, 0.000000000000000 ) );
#196 = FILL_AREA_STYLE( '', ( #220 ) );
#197 = EDGE_CURVE( '', #221, #222, #223, .T. );
#198 = EDGE_CURVE( '', #224, #221, #225, .F. );
#199 = EDGE_CURVE( '', #226, #224, #227, .F. );
#200 = EDGE_CURVE( '', #222, #226, #228, .T. );
#201 = FILL_AREA_STYLE( '', ( #229 ) );
#202 = EDGE_CURVE( '', #230, #230, #231, .T. );
#203 = EDGE_CURVE( '', #232, #224, #233, .T. );
#204 = EDGE_CURVE( '', #232, #234, #235, .F. );
#205 = EDGE_CURVE( '', #226, #234, #236, .T. );
#206 = EDGE_CURVE( '', #237, #237, #238, .T. );
#207 = FILL_AREA_STYLE( '', ( #239 ) );
#208 = EDGE_CURVE( '', #240, #240, #241, .T. );
#209 = EDGE_CURVE( '', #242, #243, #244, .T. );
#210 = EDGE_CURVE( '', #243, #221, #245, .T. );
#211 = EDGE_CURVE( '', #222, #242, #246, .T. );
#212 = EDGE_CURVE( '', #247, #247, #248, .T. );
#213 = FILL_AREA_STYLE( '', ( #249 ) );
#214 = FILL_AREA_STYLE( '', ( #250 ) );
#215 = EDGE_CURVE( '', #234, #242, #251, .F. );
#216 = EDGE_CURVE( '', #243, #232, #252, .T. );
#217 = FILL_AREA_STYLE( '', ( #253 ) );
#218 = FILL_AREA_STYLE( '', ( #254 ) );
#219 = FILL_AREA_STYLE( '', ( #255 ) );
#220 = FILL_AREA_STYLE_COLOUR( '', #256 );
#221 = VERTEX_POINT( '', #257 );
#222 = VERTEX_POINT( '', #258 );
#223 = CIRCLE( '', #259, 1.75000000000000 );
#224 = VERTEX_POINT( '', #260 );
#225 = LINE( '', #261, #262 );
#226 = VERTEX_POINT( '', #263 );
#227 = CIRCLE( '', #264, 1.75000000000000 );
#228 = LINE( '', #265, #266 );
#229 = FILL_AREA_STYLE_COLOUR( '', #267 );
#230 = VERTEX_POINT( '', #268 );
#231 = CIRCLE( '', #269, 0.900000000000000 );
#232 = VERTEX_POINT( '', #270 );
#233 = LINE( '', #271, #272 );
#234 = VERTEX_POINT( '', #273 );
#235 = CIRCLE( '', #274, 1.75000000000000 );
#236 = LINE( '', #275, #276 );
#237 = VERTEX_POINT( '', #277 );
#238 = CIRCLE( '', #278, 0.900000000000000 );
#239 = FILL_AREA_STYLE_COLOUR( '', #279 );
#240 = VERTEX_POINT( '', #280 );
#241 = CIRCLE( '', #281, 0.900000000000000 );
#242 = VERTEX_POINT( '', #282 );
#243 = VERTEX_POINT( '', #283 );
#244 = CIRCLE( '', #284, 1.75000000000000 );
#245 = LINE( '', #285, #286 );
#246 = LINE( '', #287, #288 );
#247 = VERTEX_POINT( '', #289 );
#248 = CIRCLE( '', #290, 0.900000000000000 );
#249 = FILL_AREA_STYLE_COLOUR( '', #291 );
#250 = FILL_AREA_STYLE_COLOUR( '', #292 );
#251 = LINE( '', #293, #294 );
#252 = LINE( '', #295, #296 );
#253 = FILL_AREA_STYLE_COLOUR( '', #297 );
#254 = FILL_AREA_STYLE_COLOUR( '', #298 );
#255 = FILL_AREA_STYLE_COLOUR( '', #299 );
#256 = COLOUR_RGB( '', 0.200000002980232, 0.200000002980232, 0.200000002980232 );
#257 = CARTESIAN_POINT( '', ( -1.45000000000000, 1.75000000000000, 5.00000000000000 ) );
#258 = CARTESIAN_POINT( '', ( -1.45000000000000, -1.75000000000000, 5.00000000000000 ) );
#259 = AXIS2_PLACEMENT_3D( '', #300, #301, #302 );
#260 = CARTESIAN_POINT( '', ( -1.45000000000000, 1.75000000000000, 0.000000000000000 ) );
#261 = CARTESIAN_POINT( '', ( -1.45000000000000, 1.75000000000000, 5.00000000000000 ) );
#262 = VECTOR( '', #303, 1000.00000000000 );
#263 = CARTESIAN_POINT( '', ( -1.45000000000000, -1.75000000000000, 0.000000000000000 ) );
#264 = AXIS2_PLACEMENT_3D( '', #304, #305, #306 );
#265 = CARTESIAN_POINT( '', ( -1.45000000000000, -1.75000000000000, 5.00000000000000 ) );
#266 = VECTOR( '', #307, 1000.00000000000 );
#267 = COLOUR_RGB( '', 0.200000002980232, 0.200000002980232, 0.200000002980232 );
#268 = CARTESIAN_POINT( '', ( 2.40000000000000, -1.83690953073357E-016, 0.000000000000000 ) );
#269 = AXIS2_PLACEMENT_3D( '', #308, #309, #310 );
#270 = CARTESIAN_POINT( '', ( 1.45000000000000, 1.75000000000000, 0.000000000000000 ) );
#271 = CARTESIAN_POINT( '', ( 3.20000000000000, 1.75000000000000, 0.000000000000000 ) );
#272 = VECTOR( '', #311, 1000.00000000000 );
#273 = CARTESIAN_POINT( '', ( 1.45000000000000, -1.75000000000000, 0.000000000000000 ) );
#274 = AXIS2_PLACEMENT_3D( '', #312, #313, #314 );
#275 = CARTESIAN_POINT( '', ( -3.20000000000000, -1.75000000000000, 0.000000000000000 ) );
#276 = VECTOR( '', #315, 1000.00000000000 );
#277 = CARTESIAN_POINT( '', ( -0.600000000000000, 0.000000000000000, 0.000000000000000 ) );
#278 = AXIS2_PLACEMENT_3D( '', #316, #317, #318 );
#279 = COLOUR_RGB( '', 0.200000002980232, 0.200000002980232, 0.200000002980232 );
#280 = CARTESIAN_POINT( '', ( 2.40000000000000, -1.83690953073357E-016, 5.00000000000000 ) );
#281 = AXIS2_PLACEMENT_3D( '', #319, #320, #321 );
#282 = CARTESIAN_POINT( '', ( 1.45000000000000, -1.75000000000000, 5.00000000000000 ) );
#283 = CARTESIAN_POINT( '', ( 1.45000000000000, 1.75000000000000, 5.00000000000000 ) );
#284 = AXIS2_PLACEMENT_3D( '', #322, #323, #324 );
#285 = CARTESIAN_POINT( '', ( 3.20000000000000, 1.75000000000000, 5.00000000000000 ) );
#286 = VECTOR( '', #325, 1000.00000000000 );
#287 = CARTESIAN_POINT( '', ( -3.20000000000000, -1.75000000000000, 5.00000000000000 ) );
#288 = VECTOR( '', #326, 1000.00000000000 );
#289 = CARTESIAN_POINT( '', ( -0.600000000000000, 0.000000000000000, 5.00000000000000 ) );
#290 = AXIS2_PLACEMENT_3D( '', #327, #328, #329 );
#291 = COLOUR_RGB( '', 0.200000002980232, 0.200000002980232, 0.200000002980232 );
#292 = COLOUR_RGB( '', 0.200000002980232, 0.200000002980232, 0.200000002980232 );
#293 = CARTESIAN_POINT( '', ( 1.45000000000000, -1.75000000000000, 5.00000000000000 ) );
#294 = VECTOR( '', #330, 1000.00000000000 );
#295 = CARTESIAN_POINT( '', ( 1.45000000000000, 1.75000000000000, 5.00000000000000 ) );
#296 = VECTOR( '', #331, 1000.00000000000 );
#297 = COLOUR_RGB( '', 0.200000002980232, 0.200000002980232, 0.200000002980232 );
#298 = COLOUR_RGB( '', 0.200000002980232, 0.200000002980232, 0.200000002980232 );
#299 = COLOUR_RGB( '', 0.200000002980232, 0.200000002980232, 0.200000002980232 );
#300 = CARTESIAN_POINT( '', ( -1.45000000000000, -2.16840434497101E-016, 5.00000000000000 ) );
#301 = DIRECTION( '', ( 0.000000000000000, 0.000000000000000, 1.00000000000000 ) );
#302 = DIRECTION( '', ( 1.00000000000000, 0.000000000000000, 0.000000000000000 ) );
#303 = DIRECTION( '', ( 0.000000000000000, 0.000000000000000, -1.00000000000000 ) );
#304 = CARTESIAN_POINT( '', ( -1.45000000000000, -2.16840434497101E-016, 0.000000000000000 ) );
#305 = DIRECTION( '', ( 0.000000000000000, 0.000000000000000, 1.00000000000000 ) );
#306 = DIRECTION( '', ( 1.00000000000000, 0.000000000000000, 0.000000000000000 ) );
#307 = DIRECTION( '', ( 0.000000000000000, 0.000000000000000, -1.00000000000000 ) );
#308 = CARTESIAN_POINT( '', ( 1.50000000000000, -1.83690953073357E-016, 0.000000000000000 ) );
#309 = DIRECTION( '', ( 0.000000000000000, 0.000000000000000, 1.00000000000000 ) );
#310 = DIRECTION( '', ( 1.00000000000000, 0.000000000000000, 0.000000000000000 ) );
#311 = DIRECTION( '', ( -1.00000000000000, 6.77626357803440E-017, 0.000000000000000 ) );
#312 = CARTESIAN_POINT( '', ( 1.45000000000000, 2.16840434497101E-016, 0.000000000000000 ) );
#313 = DIRECTION( '', ( 0.000000000000000, 0.000000000000000, 1.00000000000000 ) );
#314 = DIRECTION( '', ( 1.00000000000000, 0.000000000000000, 0.000000000000000 ) );
#315 = DIRECTION( '', ( 1.00000000000000, 6.77626357803440E-017, 0.000000000000000 ) );
#316 = CARTESIAN_POINT( '', ( -1.50000000000000, 0.000000000000000, 0.000000000000000 ) );
#317 = DIRECTION( '', ( 0.000000000000000, 0.000000000000000, -1.00000000000000 ) );
#318 = DIRECTION( '', ( 1.00000000000000, 0.000000000000000, 0.000000000000000 ) );
#319 = CARTESIAN_POINT( '', ( 1.50000000000000, -1.83690953073357E-016, 5.00000000000000 ) );
#320 = DIRECTION( '', ( 0.000000000000000, 0.000000000000000, 1.00000000000000 ) );
#321 = DIRECTION( '', ( 1.00000000000000, 0.000000000000000, 0.000000000000000 ) );
#322 = CARTESIAN_POINT( '', ( 1.45000000000000, 2.16840434497101E-016, 5.00000000000000 ) );
#323 = DIRECTION( '', ( 0.000000000000000, 0.000000000000000, 1.00000000000000 ) );
#324 = DIRECTION( '', ( 1.00000000000000, 0.000000000000000, 0.000000000000000 ) );
#325 = DIRECTION( '', ( -1.00000000000000, 6.77626357803440E-017, 0.000000000000000 ) );
#326 = DIRECTION( '', ( 1.00000000000000, 6.77626357803440E-017, 0.000000000000000 ) );
#327 = CARTESIAN_POINT( '', ( -1.50000000000000, 0.000000000000000, 5.00000000000000 ) );
#328 = DIRECTION( '', ( 0.000000000000000, 0.000000000000000, -1.00000000000000 ) );
#329 = DIRECTION( '', ( 1.00000000000000, 0.000000000000000, 0.000000000000000 ) );
#330 = DIRECTION( '', ( 0.000000000000000, 0.000000000000000, -1.00000000000000 ) );
#331 = DIRECTION( '', ( 0.000000000000000, 0.000000000000000, -1.00000000000000 ) );
ENDSEC;
END-ISO-10303-21;
