ISO-10303-21;
HEADER;
/* Generated by software containing ST-Developer
 * from STEP Tools, Inc. (www.steptools.com) 
 */
/* OPTION: strings as raw bytes, not using required /X/ escapes */

FILE_DESCRIPTION(
/* description */ ('Unknown'),
/* implementation_level */ '2;1');

FILE_NAME(
/* name */ '4.5x3.2x2x0.5',
/* time_stamp */ '2022-11-15T11:29:18+01:00',
/* author */ ('Unknown'),
/* organization */ ('Unknown'),
/* preprocessor_version */ 'ST-DEVELOPER v16.7',
/* originating_system */ 'Solid Edge',
/* authorisation */ 'Unknown');

FILE_SCHEMA (('AUTOMOTIVE_DESIGN {1 0 10303 214 3 1 1}'));
ENDSEC;

DATA;
#10=PROPERTY_DEFINITION_REPRESENTATION(#14,#12);
#11=PROPERTY_DEFINITION_REPRESENTATION(#15,#13);
#12=REPRESENTATION('',(#16),#443);
#13=REPRESENTATION('',(#17),#443);
#14=PROPERTY_DEFINITION('pmi validation property','',#452);
#15=PROPERTY_DEFINITION('pmi validation property','',#452);
#16=VALUE_REPRESENTATION_ITEM('number of annotations',COUNT_MEASURE(0.));
#17=VALUE_REPRESENTATION_ITEM('number of views',COUNT_MEASURE(0.));
#18=CONTEXT_DEPENDENT_SHAPE_REPRESENTATION(#24,#454);
#19=CONTEXT_DEPENDENT_SHAPE_REPRESENTATION(#25,#456);
#20=CONTEXT_DEPENDENT_SHAPE_REPRESENTATION(#26,#457);
#21=NEXT_ASSEMBLY_USAGE_OCCURRENCE('Body_4.5x3.2x2x0.5',
'Body_4.5x3.2x2x0.5','Body_4.5x3.2x2x0.5',#458,#459,'');
#22=NEXT_ASSEMBLY_USAGE_OCCURRENCE('Contact_3.2x2x0.5',
'Contact_3.2x2x0.5','Contact_3.2x2x0.5',#458,#460,'');
#23=NEXT_ASSEMBLY_USAGE_OCCURRENCE('Contact_3.2x2x0.5',
'Contact_3.2x2x0.5','Contact_3.2x2x0.5',#458,#460,'');
#24=(
REPRESENTATION_RELATIONSHIP(' ',' ',#311,#312)
REPRESENTATION_RELATIONSHIP_WITH_TRANSFORMATION(#27)
SHAPE_REPRESENTATION_RELATIONSHIP()
);
#25=(
REPRESENTATION_RELATIONSHIP(' ',' ',#313,#312)
REPRESENTATION_RELATIONSHIP_WITH_TRANSFORMATION(#28)
SHAPE_REPRESENTATION_RELATIONSHIP()
);
#26=(
REPRESENTATION_RELATIONSHIP(' ',' ',#313,#312)
REPRESENTATION_RELATIONSHIP_WITH_TRANSFORMATION(#29)
SHAPE_REPRESENTATION_RELATIONSHIP()
);
#27=ITEM_DEFINED_TRANSFORMATION(' ',' ',#314,#321);
#28=ITEM_DEFINED_TRANSFORMATION(' ',' ',#314,#328);
#29=ITEM_DEFINED_TRANSFORMATION(' ',' ',#314,#329);
#30=SHAPE_REPRESENTATION_RELATIONSHIP('','',#311,#32);
#31=SHAPE_REPRESENTATION_RELATIONSHIP('','',#313,#33);
#32=ADVANCED_BREP_SHAPE_REPRESENTATION('',(#306),#444);
#33=ADVANCED_BREP_SHAPE_REPRESENTATION('',(#307),#445);
#34=ORIENTED_EDGE('',*,*,#82,.F.);
#35=ORIENTED_EDGE('',*,*,#83,.F.);
#36=ORIENTED_EDGE('',*,*,#84,.T.);
#37=ORIENTED_EDGE('',*,*,#85,.T.);
#38=ORIENTED_EDGE('',*,*,#86,.F.);
#39=ORIENTED_EDGE('',*,*,#85,.F.);
#40=ORIENTED_EDGE('',*,*,#87,.T.);
#41=ORIENTED_EDGE('',*,*,#88,.T.);
#42=ORIENTED_EDGE('',*,*,#89,.F.);
#43=ORIENTED_EDGE('',*,*,#88,.F.);
#44=ORIENTED_EDGE('',*,*,#90,.T.);
#45=ORIENTED_EDGE('',*,*,#91,.T.);
#46=ORIENTED_EDGE('',*,*,#92,.F.);
#47=ORIENTED_EDGE('',*,*,#91,.F.);
#48=ORIENTED_EDGE('',*,*,#93,.T.);
#49=ORIENTED_EDGE('',*,*,#83,.T.);
#50=ORIENTED_EDGE('',*,*,#84,.F.);
#51=ORIENTED_EDGE('',*,*,#93,.F.);
#52=ORIENTED_EDGE('',*,*,#90,.F.);
#53=ORIENTED_EDGE('',*,*,#87,.F.);
#54=ORIENTED_EDGE('',*,*,#82,.T.);
#55=ORIENTED_EDGE('',*,*,#86,.T.);
#56=ORIENTED_EDGE('',*,*,#89,.T.);
#57=ORIENTED_EDGE('',*,*,#92,.T.);
#58=ORIENTED_EDGE('',*,*,#94,.F.);
#59=ORIENTED_EDGE('',*,*,#95,.F.);
#60=ORIENTED_EDGE('',*,*,#96,.T.);
#61=ORIENTED_EDGE('',*,*,#97,.T.);
#62=ORIENTED_EDGE('',*,*,#98,.F.);
#63=ORIENTED_EDGE('',*,*,#97,.F.);
#64=ORIENTED_EDGE('',*,*,#99,.T.);
#65=ORIENTED_EDGE('',*,*,#100,.T.);
#66=ORIENTED_EDGE('',*,*,#101,.F.);
#67=ORIENTED_EDGE('',*,*,#100,.F.);
#68=ORIENTED_EDGE('',*,*,#102,.T.);
#69=ORIENTED_EDGE('',*,*,#103,.T.);
#70=ORIENTED_EDGE('',*,*,#104,.F.);
#71=ORIENTED_EDGE('',*,*,#103,.F.);
#72=ORIENTED_EDGE('',*,*,#105,.T.);
#73=ORIENTED_EDGE('',*,*,#95,.T.);
#74=ORIENTED_EDGE('',*,*,#96,.F.);
#75=ORIENTED_EDGE('',*,*,#105,.F.);
#76=ORIENTED_EDGE('',*,*,#102,.F.);
#77=ORIENTED_EDGE('',*,*,#99,.F.);
#78=ORIENTED_EDGE('',*,*,#94,.T.);
#79=ORIENTED_EDGE('',*,*,#98,.T.);
#80=ORIENTED_EDGE('',*,*,#101,.T.);
#81=ORIENTED_EDGE('',*,*,#104,.T.);
#82=EDGE_CURVE('',#106,#107,#122,.T.);
#83=EDGE_CURVE('',#108,#106,#123,.T.);
#84=EDGE_CURVE('',#108,#109,#124,.T.);
#85=EDGE_CURVE('',#109,#107,#125,.T.);
#86=EDGE_CURVE('',#107,#110,#126,.T.);
#87=EDGE_CURVE('',#109,#111,#127,.T.);
#88=EDGE_CURVE('',#111,#110,#128,.T.);
#89=EDGE_CURVE('',#110,#112,#129,.T.);
#90=EDGE_CURVE('',#111,#113,#130,.T.);
#91=EDGE_CURVE('',#113,#112,#131,.T.);
#92=EDGE_CURVE('',#112,#106,#132,.T.);
#93=EDGE_CURVE('',#113,#108,#133,.T.);
#94=EDGE_CURVE('',#114,#115,#134,.T.);
#95=EDGE_CURVE('',#116,#114,#135,.T.);
#96=EDGE_CURVE('',#116,#117,#136,.T.);
#97=EDGE_CURVE('',#117,#115,#137,.T.);
#98=EDGE_CURVE('',#115,#118,#138,.T.);
#99=EDGE_CURVE('',#117,#119,#139,.T.);
#100=EDGE_CURVE('',#119,#118,#140,.T.);
#101=EDGE_CURVE('',#118,#120,#141,.T.);
#102=EDGE_CURVE('',#119,#121,#142,.T.);
#103=EDGE_CURVE('',#121,#120,#143,.T.);
#104=EDGE_CURVE('',#120,#114,#144,.T.);
#105=EDGE_CURVE('',#121,#116,#145,.T.);
#106=VERTEX_POINT('',#389);
#107=VERTEX_POINT('',#390);
#108=VERTEX_POINT('',#392);
#109=VERTEX_POINT('',#394);
#110=VERTEX_POINT('',#398);
#111=VERTEX_POINT('',#400);
#112=VERTEX_POINT('',#404);
#113=VERTEX_POINT('',#406);
#114=VERTEX_POINT('',#416);
#115=VERTEX_POINT('',#417);
#116=VERTEX_POINT('',#419);
#117=VERTEX_POINT('',#421);
#118=VERTEX_POINT('',#425);
#119=VERTEX_POINT('',#427);
#120=VERTEX_POINT('',#431);
#121=VERTEX_POINT('',#433);
#122=LINE('',#388,#146);
#123=LINE('',#391,#147);
#124=LINE('',#393,#148);
#125=LINE('',#395,#149);
#126=LINE('',#397,#150);
#127=LINE('',#399,#151);
#128=LINE('',#401,#152);
#129=LINE('',#403,#153);
#130=LINE('',#405,#154);
#131=LINE('',#407,#155);
#132=LINE('',#409,#156);
#133=LINE('',#410,#157);
#134=LINE('',#415,#158);
#135=LINE('',#418,#159);
#136=LINE('',#420,#160);
#137=LINE('',#422,#161);
#138=LINE('',#424,#162);
#139=LINE('',#426,#163);
#140=LINE('',#428,#164);
#141=LINE('',#430,#165);
#142=LINE('',#432,#166);
#143=LINE('',#434,#167);
#144=LINE('',#436,#168);
#145=LINE('',#437,#169);
#146=VECTOR('',#334,1000.);
#147=VECTOR('',#335,1000.);
#148=VECTOR('',#336,1000.);
#149=VECTOR('',#337,1000.);
#150=VECTOR('',#340,1000.);
#151=VECTOR('',#341,1000.);
#152=VECTOR('',#342,1000.);
#153=VECTOR('',#345,1000.);
#154=VECTOR('',#346,1000.);
#155=VECTOR('',#347,1000.);
#156=VECTOR('',#350,1000.);
#157=VECTOR('',#351,1000.);
#158=VECTOR('',#360,1000.);
#159=VECTOR('',#361,1000.);
#160=VECTOR('',#362,1000.);
#161=VECTOR('',#363,1000.);
#162=VECTOR('',#366,1000.);
#163=VECTOR('',#367,1000.);
#164=VECTOR('',#368,1000.);
#165=VECTOR('',#371,1000.);
#166=VECTOR('',#372,1000.);
#167=VECTOR('',#373,1000.);
#168=VECTOR('',#376,1000.);
#169=VECTOR('',#377,1000.);
#170=EDGE_LOOP('',(#34,#35,#36,#37));
#171=EDGE_LOOP('',(#38,#39,#40,#41));
#172=EDGE_LOOP('',(#42,#43,#44,#45));
#173=EDGE_LOOP('',(#46,#47,#48,#49));
#174=EDGE_LOOP('',(#50,#51,#52,#53));
#175=EDGE_LOOP('',(#54,#55,#56,#57));
#176=EDGE_LOOP('',(#58,#59,#60,#61));
#177=EDGE_LOOP('',(#62,#63,#64,#65));
#178=EDGE_LOOP('',(#66,#67,#68,#69));
#179=EDGE_LOOP('',(#70,#71,#72,#73));
#180=EDGE_LOOP('',(#74,#75,#76,#77));
#181=EDGE_LOOP('',(#78,#79,#80,#81));
#182=FACE_BOUND('',#170,.T.);
#183=FACE_BOUND('',#171,.T.);
#184=FACE_BOUND('',#172,.T.);
#185=FACE_BOUND('',#173,.T.);
#186=FACE_BOUND('',#174,.T.);
#187=FACE_BOUND('',#175,.T.);
#188=FACE_BOUND('',#176,.T.);
#189=FACE_BOUND('',#177,.T.);
#190=FACE_BOUND('',#178,.T.);
#191=FACE_BOUND('',#179,.T.);
#192=FACE_BOUND('',#180,.T.);
#193=FACE_BOUND('',#181,.T.);
#194=PLANE('',#315);
#195=PLANE('',#316);
#196=PLANE('',#317);
#197=PLANE('',#318);
#198=PLANE('',#319);
#199=PLANE('',#320);
#200=PLANE('',#322);
#201=PLANE('',#323);
#202=PLANE('',#324);
#203=PLANE('',#325);
#204=PLANE('',#326);
#205=PLANE('',#327);
#206=STYLED_ITEM('',(#218),#292);
#207=STYLED_ITEM('',(#219),#293);
#208=STYLED_ITEM('',(#220),#294);
#209=STYLED_ITEM('',(#221),#295);
#210=STYLED_ITEM('',(#222),#296);
#211=STYLED_ITEM('',(#223),#297);
#212=STYLED_ITEM('',(#224),#298);
#213=STYLED_ITEM('',(#225),#299);
#214=STYLED_ITEM('',(#226),#300);
#215=STYLED_ITEM('',(#227),#301);
#216=STYLED_ITEM('',(#228),#302);
#217=STYLED_ITEM('',(#229),#303);
#218=PRESENTATION_STYLE_ASSIGNMENT((#230));
#219=PRESENTATION_STYLE_ASSIGNMENT((#231));
#220=PRESENTATION_STYLE_ASSIGNMENT((#232));
#221=PRESENTATION_STYLE_ASSIGNMENT((#233));
#222=PRESENTATION_STYLE_ASSIGNMENT((#234));
#223=PRESENTATION_STYLE_ASSIGNMENT((#235));
#224=PRESENTATION_STYLE_ASSIGNMENT((#236));
#225=PRESENTATION_STYLE_ASSIGNMENT((#237));
#226=PRESENTATION_STYLE_ASSIGNMENT((#238));
#227=PRESENTATION_STYLE_ASSIGNMENT((#239));
#228=PRESENTATION_STYLE_ASSIGNMENT((#240));
#229=PRESENTATION_STYLE_ASSIGNMENT((#241));
#230=SURFACE_STYLE_USAGE(.BOTH.,#242);
#231=SURFACE_STYLE_USAGE(.BOTH.,#243);
#232=SURFACE_STYLE_USAGE(.BOTH.,#244);
#233=SURFACE_STYLE_USAGE(.BOTH.,#245);
#234=SURFACE_STYLE_USAGE(.BOTH.,#246);
#235=SURFACE_STYLE_USAGE(.BOTH.,#247);
#236=SURFACE_STYLE_USAGE(.BOTH.,#248);
#237=SURFACE_STYLE_USAGE(.BOTH.,#249);
#238=SURFACE_STYLE_USAGE(.BOTH.,#250);
#239=SURFACE_STYLE_USAGE(.BOTH.,#251);
#240=SURFACE_STYLE_USAGE(.BOTH.,#252);
#241=SURFACE_STYLE_USAGE(.BOTH.,#253);
#242=SURFACE_SIDE_STYLE('',(#254));
#243=SURFACE_SIDE_STYLE('',(#255));
#244=SURFACE_SIDE_STYLE('',(#256));
#245=SURFACE_SIDE_STYLE('',(#257));
#246=SURFACE_SIDE_STYLE('',(#258));
#247=SURFACE_SIDE_STYLE('',(#259));
#248=SURFACE_SIDE_STYLE('',(#260));
#249=SURFACE_SIDE_STYLE('',(#261));
#250=SURFACE_SIDE_STYLE('',(#262));
#251=SURFACE_SIDE_STYLE('',(#263));
#252=SURFACE_SIDE_STYLE('',(#264));
#253=SURFACE_SIDE_STYLE('',(#265));
#254=SURFACE_STYLE_FILL_AREA(#266);
#255=SURFACE_STYLE_FILL_AREA(#267);
#256=SURFACE_STYLE_FILL_AREA(#268);
#257=SURFACE_STYLE_FILL_AREA(#269);
#258=SURFACE_STYLE_FILL_AREA(#270);
#259=SURFACE_STYLE_FILL_AREA(#271);
#260=SURFACE_STYLE_FILL_AREA(#272);
#261=SURFACE_STYLE_FILL_AREA(#273);
#262=SURFACE_STYLE_FILL_AREA(#274);
#263=SURFACE_STYLE_FILL_AREA(#275);
#264=SURFACE_STYLE_FILL_AREA(#276);
#265=SURFACE_STYLE_FILL_AREA(#277);
#266=FILL_AREA_STYLE('',(#278));
#267=FILL_AREA_STYLE('',(#279));
#268=FILL_AREA_STYLE('',(#280));
#269=FILL_AREA_STYLE('',(#281));
#270=FILL_AREA_STYLE('',(#282));
#271=FILL_AREA_STYLE('',(#283));
#272=FILL_AREA_STYLE('',(#284));
#273=FILL_AREA_STYLE('',(#285));
#274=FILL_AREA_STYLE('',(#286));
#275=FILL_AREA_STYLE('',(#287));
#276=FILL_AREA_STYLE('',(#288));
#277=FILL_AREA_STYLE('',(#289));
#278=FILL_AREA_STYLE_COLOUR('',#290);
#279=FILL_AREA_STYLE_COLOUR('',#291);
#280=FILL_AREA_STYLE_COLOUR('',#290);
#281=FILL_AREA_STYLE_COLOUR('',#291);
#282=FILL_AREA_STYLE_COLOUR('',#291);
#283=FILL_AREA_STYLE_COLOUR('',#291);
#284=FILL_AREA_STYLE_COLOUR('',#290);
#285=FILL_AREA_STYLE_COLOUR('',#290);
#286=FILL_AREA_STYLE_COLOUR('',#290);
#287=FILL_AREA_STYLE_COLOUR('',#290);
#288=FILL_AREA_STYLE_COLOUR('',#291);
#289=FILL_AREA_STYLE_COLOUR('',#290);
#290=COLOUR_RGB('',0.119999997317791,0.119999997317791,0.119999997317791);
#291=COLOUR_RGB('',0.645180702209473,0.678915679454803,0.699999988079071);
#292=ADVANCED_FACE('',(#182),#194,.T.);
#293=ADVANCED_FACE('',(#183),#195,.T.);
#294=ADVANCED_FACE('',(#184),#196,.T.);
#295=ADVANCED_FACE('',(#185),#197,.T.);
#296=ADVANCED_FACE('',(#186),#198,.F.);
#297=ADVANCED_FACE('',(#187),#199,.T.);
#298=ADVANCED_FACE('',(#188),#200,.T.);
#299=ADVANCED_FACE('',(#189),#201,.T.);
#300=ADVANCED_FACE('',(#190),#202,.T.);
#301=ADVANCED_FACE('',(#191),#203,.T.);
#302=ADVANCED_FACE('',(#192),#204,.F.);
#303=ADVANCED_FACE('',(#193),#205,.T.);
#304=CLOSED_SHELL('',(#292,#293,#294,#295,#296,#297));
#305=CLOSED_SHELL('',(#298,#299,#300,#301,#302,#303));
#306=MANIFOLD_SOLID_BREP('',#304);
#307=MANIFOLD_SOLID_BREP('',#305);
#308=SHAPE_DEFINITION_REPRESENTATION(#453,#311);
#309=SHAPE_DEFINITION_REPRESENTATION(#452,#312);
#310=SHAPE_DEFINITION_REPRESENTATION(#455,#313);
#311=SHAPE_REPRESENTATION('Body_4.5x3.2x2x0.5',(#314),#444);
#312=SHAPE_REPRESENTATION('4.5x3.2x2x0.5',(#314,#321,#328,#329),#443);
#313=SHAPE_REPRESENTATION('Contact_3.2x2x0.5',(#314),#445);
#314=AXIS2_PLACEMENT_3D('',#386,#330,#331);
#315=AXIS2_PLACEMENT_3D('',#387,#332,#333);
#316=AXIS2_PLACEMENT_3D('',#396,#338,#339);
#317=AXIS2_PLACEMENT_3D('',#402,#343,#344);
#318=AXIS2_PLACEMENT_3D('',#408,#348,#349);
#319=AXIS2_PLACEMENT_3D('',#411,#352,#353);
#320=AXIS2_PLACEMENT_3D('',#412,#354,#355);
#321=AXIS2_PLACEMENT_3D('',#413,#356,#357);
#322=AXIS2_PLACEMENT_3D('',#414,#358,#359);
#323=AXIS2_PLACEMENT_3D('',#423,#364,#365);
#324=AXIS2_PLACEMENT_3D('',#429,#369,#370);
#325=AXIS2_PLACEMENT_3D('',#435,#374,#375);
#326=AXIS2_PLACEMENT_3D('',#438,#378,#379);
#327=AXIS2_PLACEMENT_3D('',#439,#380,#381);
#328=AXIS2_PLACEMENT_3D('',#440,#382,#383);
#329=AXIS2_PLACEMENT_3D('',#441,#384,#385);
#330=DIRECTION('',(0.,0.,1.));
#331=DIRECTION('',(1.,0.,0.));
#332=DIRECTION('',(1.,1.35525271560688E-16,0.));
#333=DIRECTION('',(-1.35525271560688E-16,1.,0.));
#334=DIRECTION('',(1.35525271560688E-16,-1.,0.));
#335=DIRECTION('',(0.,0.,-1.));
#336=DIRECTION('',(1.35525271560688E-16,-1.,0.));
#337=DIRECTION('',(0.,0.,-1.));
#338=DIRECTION('',(1.23908819712629E-16,-1.,0.));
#339=DIRECTION('',(1.,1.23908819712629E-16,0.));
#340=DIRECTION('',(-1.,-1.23908819712629E-16,0.));
#341=DIRECTION('',(-1.,-1.23908819712629E-16,0.));
#342=DIRECTION('',(0.,0.,-1.));
#343=DIRECTION('',(-1.,-1.35525271560688E-16,0.));
#344=DIRECTION('',(1.35525271560688E-16,-1.,0.));
#345=DIRECTION('',(-1.35525271560688E-16,1.,0.));
#346=DIRECTION('',(-1.35525271560688E-16,1.,0.));
#347=DIRECTION('',(0.,0.,-1.));
#348=DIRECTION('',(-1.23908819712629E-16,1.,0.));
#349=DIRECTION('',(-1.,-1.23908819712629E-16,0.));
#350=DIRECTION('',(1.,1.23908819712629E-16,0.));
#351=DIRECTION('',(1.,1.23908819712629E-16,0.));
#352=DIRECTION('',(0.,0.,-1.));
#353=DIRECTION('',(-1.,0.,0.));
#354=DIRECTION('',(0.,0.,-1.));
#355=DIRECTION('',(-1.,0.,0.));
#356=DIRECTION('',(0.,0.,1.));
#357=DIRECTION('',(1.,0.,0.));
#358=DIRECTION('',(1.,8.67361737988403E-17,0.));
#359=DIRECTION('',(-8.67361737988403E-17,1.,0.));
#360=DIRECTION('',(8.67361737988403E-17,-1.,0.));
#361=DIRECTION('',(0.,0.,-1.));
#362=DIRECTION('',(8.67361737988403E-17,-1.,0.));
#363=DIRECTION('',(0.,0.,-1.));
#364=DIRECTION('',(1.35525271560688E-16,-1.,0.));
#365=DIRECTION('',(1.,1.35525271560688E-16,0.));
#366=DIRECTION('',(-1.,-1.35525271560688E-16,0.));
#367=DIRECTION('',(-1.,-1.35525271560688E-16,0.));
#368=DIRECTION('',(0.,0.,-1.));
#369=DIRECTION('',(-1.,-8.67361737988403E-17,0.));
#370=DIRECTION('',(8.67361737988403E-17,-1.,0.));
#371=DIRECTION('',(-8.67361737988403E-17,1.,0.));
#372=DIRECTION('',(-8.67361737988403E-17,1.,0.));
#373=DIRECTION('',(0.,0.,-1.));
#374=DIRECTION('',(-1.35525271560688E-16,1.,0.));
#375=DIRECTION('',(-1.,-1.35525271560688E-16,0.));
#376=DIRECTION('',(1.,1.35525271560688E-16,0.));
#377=DIRECTION('',(1.,1.35525271560688E-16,0.));
#378=DIRECTION('',(0.,0.,-1.));
#379=DIRECTION('',(-1.,0.,0.));
#380=DIRECTION('',(0.,0.,-1.));
#381=DIRECTION('',(-1.,0.,0.));
#382=DIRECTION('',(-1.,-2.35105270636541E-16,-8.18329531882546E-26));
#383=DIRECTION('',(2.35105270636541E-16,-1.,6.93889390390723E-17));
#384=DIRECTION('',(1.,3.59452724848348E-17,8.18330154255358E-26));
#385=DIRECTION('',(-3.59452724848348E-17,1.,-4.02455846426619E-16));
#386=CARTESIAN_POINT('',(0.,0.,0.));
#387=CARTESIAN_POINT('',(1.75,1.6,1.25));
#388=CARTESIAN_POINT('',(1.75,1.6,-1.25));
#389=CARTESIAN_POINT('',(1.75,1.6,-1.25));
#390=CARTESIAN_POINT('',(1.75,-1.6,-1.25));
#391=CARTESIAN_POINT('',(1.75,1.6,1.25));
#392=CARTESIAN_POINT('',(1.75,1.6,1.25));
#393=CARTESIAN_POINT('',(1.75,1.6,1.25));
#394=CARTESIAN_POINT('',(1.75,-1.6,1.25));
#395=CARTESIAN_POINT('',(1.75,-1.6,1.25));
#396=CARTESIAN_POINT('',(1.75,-1.6,1.25));
#397=CARTESIAN_POINT('',(1.75,-1.6,-1.25));
#398=CARTESIAN_POINT('',(-1.75,-1.6,-1.25));
#399=CARTESIAN_POINT('',(1.75,-1.6,1.25));
#400=CARTESIAN_POINT('',(-1.75,-1.6,1.25));
#401=CARTESIAN_POINT('',(-1.75,-1.6,1.25));
#402=CARTESIAN_POINT('',(-1.75,-1.6,1.25));
#403=CARTESIAN_POINT('',(-1.75,-1.6,-1.25));
#404=CARTESIAN_POINT('',(-1.75,1.6,-1.25));
#405=CARTESIAN_POINT('',(-1.75,-1.6,1.25));
#406=CARTESIAN_POINT('',(-1.75,1.6,1.25));
#407=CARTESIAN_POINT('',(-1.75,1.6,1.25));
#408=CARTESIAN_POINT('',(-1.75,1.6,1.25));
#409=CARTESIAN_POINT('',(-1.75,1.6,-1.25));
#410=CARTESIAN_POINT('',(-1.75,1.6,1.25));
#411=CARTESIAN_POINT('',(0.,0.,1.25));
#412=CARTESIAN_POINT('',(0.,0.,-1.25));
#413=CARTESIAN_POINT('',(0.,0.,0.));
#414=CARTESIAN_POINT('',(1.6,1.25,0.25));
#415=CARTESIAN_POINT('',(1.6,1.25,-0.25));
#416=CARTESIAN_POINT('',(1.6,1.25,-0.25));
#417=CARTESIAN_POINT('',(1.6,-1.25,-0.25));
#418=CARTESIAN_POINT('',(1.6,1.25,0.25));
#419=CARTESIAN_POINT('',(1.6,1.25,0.25));
#420=CARTESIAN_POINT('',(1.6,1.25,0.25));
#421=CARTESIAN_POINT('',(1.6,-1.25,0.25));
#422=CARTESIAN_POINT('',(1.6,-1.25,0.25));
#423=CARTESIAN_POINT('',(1.6,-1.25,0.25));
#424=CARTESIAN_POINT('',(1.6,-1.25,-0.25));
#425=CARTESIAN_POINT('',(-1.6,-1.25,-0.25));
#426=CARTESIAN_POINT('',(1.6,-1.25,0.25));
#427=CARTESIAN_POINT('',(-1.6,-1.25,0.25));
#428=CARTESIAN_POINT('',(-1.6,-1.25,0.25));
#429=CARTESIAN_POINT('',(-1.6,-1.25,0.25));
#430=CARTESIAN_POINT('',(-1.6,-1.25,-0.25));
#431=CARTESIAN_POINT('',(-1.6,1.25,-0.25));
#432=CARTESIAN_POINT('',(-1.6,-1.25,0.25));
#433=CARTESIAN_POINT('',(-1.6,1.25,0.25));
#434=CARTESIAN_POINT('',(-1.6,1.25,0.25));
#435=CARTESIAN_POINT('',(-1.6,1.25,0.25));
#436=CARTESIAN_POINT('',(-1.6,1.25,-0.25));
#437=CARTESIAN_POINT('',(-1.6,1.25,0.25));
#438=CARTESIAN_POINT('',(0.,0.,0.25));
#439=CARTESIAN_POINT('',(0.,0.,-0.25));
#440=CARTESIAN_POINT('',(2.,-1.49143785097977E-14,1.38777878078145E-14));
#441=CARTESIAN_POINT('',(-2.,-2.05363431611661E-14,-2.47198095463663E-14));
#442=MECHANICAL_DESIGN_GEOMETRIC_PRESENTATION_REPRESENTATION('',(#206,#207,
#208,#209,#210,#211,#212,#213,#214,#215,#216,#217),#443);
#443=(
GEOMETRIC_REPRESENTATION_CONTEXT(3)
GLOBAL_UNCERTAINTY_ASSIGNED_CONTEXT((#446))
GLOBAL_UNIT_ASSIGNED_CONTEXT((#451,#450,#449))
REPRESENTATION_CONTEXT('4.5x3.2x2x0.5','TOP_LEVEL_ASSEMBLY_PART')
);
#444=(
GEOMETRIC_REPRESENTATION_CONTEXT(3)
GLOBAL_UNCERTAINTY_ASSIGNED_CONTEXT((#447))
GLOBAL_UNIT_ASSIGNED_CONTEXT((#451,#450,#449))
REPRESENTATION_CONTEXT('Body_4.5x3.2x2x0.5','COMPONENT_PART')
);
#445=(
GEOMETRIC_REPRESENTATION_CONTEXT(3)
GLOBAL_UNCERTAINTY_ASSIGNED_CONTEXT((#448))
GLOBAL_UNIT_ASSIGNED_CONTEXT((#451,#450,#449))
REPRESENTATION_CONTEXT('Contact_3.2x2x0.5','COMPONENT_PART')
);
#446=UNCERTAINTY_MEASURE_WITH_UNIT(LENGTH_MEASURE(0.005),#451,
'DISTANCE_ACCURACY_VALUE','Maximum Tolerance applied to model');
#447=UNCERTAINTY_MEASURE_WITH_UNIT(LENGTH_MEASURE(0.005),#451,
'DISTANCE_ACCURACY_VALUE','Maximum Tolerance applied to model');
#448=UNCERTAINTY_MEASURE_WITH_UNIT(LENGTH_MEASURE(0.005),#451,
'DISTANCE_ACCURACY_VALUE','Maximum Tolerance applied to model');
#449=(
NAMED_UNIT(*)
SI_UNIT($,.STERADIAN.)
SOLID_ANGLE_UNIT()
);
#450=(
NAMED_UNIT(*)
PLANE_ANGLE_UNIT()
SI_UNIT($,.RADIAN.)
);
#451=(
LENGTH_UNIT()
NAMED_UNIT(*)
SI_UNIT(.MILLI.,.METRE.)
);
#452=PRODUCT_DEFINITION_SHAPE('','',#458);
#453=PRODUCT_DEFINITION_SHAPE('','',#459);
#454=PRODUCT_DEFINITION_SHAPE(' ','NAUO PRDDFN',#21);
#455=PRODUCT_DEFINITION_SHAPE('','',#460);
#456=PRODUCT_DEFINITION_SHAPE(' ','NAUO PRDDFN',#22);
#457=PRODUCT_DEFINITION_SHAPE(' ','NAUO PRDDFN',#23);
#458=PRODUCT_DEFINITION('','',#464,#461);
#459=PRODUCT_DEFINITION('','',#465,#462);
#460=PRODUCT_DEFINITION('','',#466,#463);
#461=PRODUCT_DEFINITION_CONTEXT('',#480,'design');
#462=PRODUCT_DEFINITION_CONTEXT('',#480,'design');
#463=PRODUCT_DEFINITION_CONTEXT('',#480,'design');
#464=PRODUCT_DEFINITION_FORMATION_WITH_SPECIFIED_SOURCE('','',#470,
 .NOT_KNOWN.);
#465=PRODUCT_DEFINITION_FORMATION_WITH_SPECIFIED_SOURCE('','',#471,
 .NOT_KNOWN.);
#466=PRODUCT_DEFINITION_FORMATION_WITH_SPECIFIED_SOURCE('','',#472,
 .NOT_KNOWN.);
#467=PRODUCT_RELATED_PRODUCT_CATEGORY('','',(#470));
#468=PRODUCT_RELATED_PRODUCT_CATEGORY('','',(#471));
#469=PRODUCT_RELATED_PRODUCT_CATEGORY('','',(#472));
#470=PRODUCT('4.5x3.2x2x0.5','4.5x3.2x2x0.5','4.5x3.2x2x0.5',(#476));
#471=PRODUCT('Body_4.5x3.2x2x0.5','Body_4.5x3.2x2x0.5',
'Body_4.5x3.2x2x0.5',(#477));
#472=PRODUCT('Contact_3.2x2x0.5','Contact_3.2x2x0.5',
'Contact_3.2x2x0.5',(#478));
#473=PRODUCT_CATEGORY('','');
#474=PRODUCT_CATEGORY('','');
#475=PRODUCT_CATEGORY('','');
#476=PRODUCT_CONTEXT('',#480,'mechanical');
#477=PRODUCT_CONTEXT('',#480,'mechanical');
#478=PRODUCT_CONTEXT('',#480,'mechanical');
#479=APPLICATION_PROTOCOL_DEFINITION('international standard',
'automotive_design',2010,#480);
#480=APPLICATION_CONTEXT(
'core data for automotive mechanical design processes');
ENDSEC;
END-ISO-10303-21;
