ISO-10303-21;
HEADER;
/* Generated by software containing ST-Developer
 * from STEP Tools, Inc. (www.steptools.com) 
 */
/* OPTION: strings as raw bytes, not using required /X/ escapes */

FILE_DESCRIPTION(
/* description */ ('Unknown'),
/* implementation_level */ '2;1');

FILE_NAME(
/* name */ '303121099',
/* time_stamp */ '2024-09-18T13:15:20+08:00',
/* author */ ('Unknown'),
/* organization */ ('Unknown'),
/* preprocessor_version */ 'ST-DEVELOPER v19.4',
/* originating_system */ 'Solid Edge',
/* authorisation */ 'Unknown');

FILE_SCHEMA (('AUTOMOTIVE_DESIGN {1 0 10303 214 3 1 1}'));
ENDSEC;

DATA;
#10=PROPERTY_DEFINITION_REPRESENTATION(#14,#12);
#11=PROPERTY_DEFINITION_REPRESENTATION(#15,#13);
#12=REPRESENTATION('',(#16),#648);
#13=REPRESENTATION('',(#17),#648);
#14=PROPERTY_DEFINITION('pmi validation property','',#661);
#15=PROPERTY_DEFINITION('pmi validation property','',#661);
#16=VALUE_REPRESENTATION_ITEM('number of annotations',COUNT_MEASURE(0.));
#17=VALUE_REPRESENTATION_ITEM('number of views',COUNT_MEASURE(0.));
#18=DRAUGHTING_PRE_DEFINED_COLOUR('white');
#19=CONTEXT_DEPENDENT_SHAPE_REPRESENTATION(#27,#663);
#20=CONTEXT_DEPENDENT_SHAPE_REPRESENTATION(#28,#665);
#21=CONTEXT_DEPENDENT_SHAPE_REPRESENTATION(#29,#667);
#22=CONTEXT_DEPENDENT_SHAPE_REPRESENTATION(#30,#669);
#23=NEXT_ASSEMBLY_USAGE_OCCURRENCE('Ni-cu','Ni-cu','Ni-cu',#670,#671,'');
#24=NEXT_ASSEMBLY_USAGE_OCCURRENCE('Foam','Foam','Foam',#670,#672,'');
#25=NEXT_ASSEMBLY_USAGE_OCCURRENCE('Glue','Glue','Glue',#670,#673,'');
#26=NEXT_ASSEMBLY_USAGE_OCCURRENCE('Release tape','Release tape',
'Release tape',#670,#674,'');
#27=(
REPRESENTATION_RELATIONSHIP(' ',' ',#410,#411)
REPRESENTATION_RELATIONSHIP_WITH_TRANSFORMATION(#31)
SHAPE_REPRESENTATION_RELATIONSHIP()
);
#28=(
REPRESENTATION_RELATIONSHIP(' ',' ',#412,#411)
REPRESENTATION_RELATIONSHIP_WITH_TRANSFORMATION(#32)
SHAPE_REPRESENTATION_RELATIONSHIP()
);
#29=(
REPRESENTATION_RELATIONSHIP(' ',' ',#413,#411)
REPRESENTATION_RELATIONSHIP_WITH_TRANSFORMATION(#33)
SHAPE_REPRESENTATION_RELATIONSHIP()
);
#30=(
REPRESENTATION_RELATIONSHIP(' ',' ',#414,#411)
REPRESENTATION_RELATIONSHIP_WITH_TRANSFORMATION(#34)
SHAPE_REPRESENTATION_RELATIONSHIP()
);
#31=ITEM_DEFINED_TRANSFORMATION(' ',' ',#415,#426);
#32=ITEM_DEFINED_TRANSFORMATION(' ',' ',#415,#433);
#33=ITEM_DEFINED_TRANSFORMATION(' ',' ',#415,#440);
#34=ITEM_DEFINED_TRANSFORMATION(' ',' ',#415,#447);
#35=SHAPE_REPRESENTATION_RELATIONSHIP('','',#410,#39);
#36=SHAPE_REPRESENTATION_RELATIONSHIP('','',#412,#40);
#37=SHAPE_REPRESENTATION_RELATIONSHIP('','',#413,#41);
#38=SHAPE_REPRESENTATION_RELATIONSHIP('','',#414,#42);
#39=ADVANCED_BREP_SHAPE_REPRESENTATION('',(#401),#649);
#40=ADVANCED_BREP_SHAPE_REPRESENTATION('',(#402),#650);
#41=ADVANCED_BREP_SHAPE_REPRESENTATION('',(#403),#651);
#42=ADVANCED_BREP_SHAPE_REPRESENTATION('',(#404),#652);
#43=PLANE('',#419);
#44=PLANE('',#423);
#45=PLANE('',#424);
#46=PLANE('',#425);
#47=PLANE('',#427);
#48=PLANE('',#431);
#49=PLANE('',#432);
#50=PLANE('',#434);
#51=PLANE('',#435);
#52=PLANE('',#436);
#53=PLANE('',#437);
#54=PLANE('',#438);
#55=PLANE('',#439);
#56=PLANE('',#441);
#57=PLANE('',#442);
#58=PLANE('',#443);
#59=PLANE('',#444);
#60=PLANE('',#445);
#61=PLANE('',#446);
#62=LINE('',#555,#98);
#63=LINE('',#559,#99);
#64=LINE('',#561,#100);
#65=LINE('',#564,#101);
#66=LINE('',#566,#102);
#67=LINE('',#568,#103);
#68=LINE('',#573,#104);
#69=LINE('',#574,#105);
#70=LINE('',#579,#106);
#71=LINE('',#582,#107);
#72=LINE('',#584,#108);
#73=LINE('',#586,#109);
#74=LINE('',#594,#110);
#75=LINE('',#597,#111);
#76=LINE('',#599,#112);
#77=LINE('',#601,#113);
#78=LINE('',#603,#114);
#79=LINE('',#606,#115);
#80=LINE('',#608,#116);
#81=LINE('',#610,#117);
#82=LINE('',#612,#118);
#83=LINE('',#613,#119);
#84=LINE('',#615,#120);
#85=LINE('',#616,#121);
#86=LINE('',#621,#122);
#87=LINE('',#624,#123);
#88=LINE('',#626,#124);
#89=LINE('',#628,#125);
#90=LINE('',#630,#126);
#91=LINE('',#633,#127);
#92=LINE('',#635,#128);
#93=LINE('',#637,#129);
#94=LINE('',#639,#130);
#95=LINE('',#640,#131);
#96=LINE('',#642,#132);
#97=LINE('',#643,#133);
#98=VECTOR('',#454,1000.);
#99=VECTOR('',#457,1000.);
#100=VECTOR('',#460,1000.);
#101=VECTOR('',#461,1000.);
#102=VECTOR('',#462,1000.);
#103=VECTOR('',#463,1000.);
#104=VECTOR('',#472,1000.);
#105=VECTOR('',#473,1000.);
#106=VECTOR('',#482,1000.);
#107=VECTOR('',#483,1000.);
#108=VECTOR('',#484,1000.);
#109=VECTOR('',#485,1000.);
#110=VECTOR('',#500,1000.);
#111=VECTOR('',#501,1000.);
#112=VECTOR('',#502,1000.);
#113=VECTOR('',#503,1000.);
#114=VECTOR('',#506,1000.);
#115=VECTOR('',#507,1000.);
#116=VECTOR('',#508,1000.);
#117=VECTOR('',#509,1000.);
#118=VECTOR('',#512,1000.);
#119=VECTOR('',#513,1000.);
#120=VECTOR('',#516,1000.);
#121=VECTOR('',#517,1000.);
#122=VECTOR('',#526,1000.);
#123=VECTOR('',#527,1000.);
#124=VECTOR('',#528,1000.);
#125=VECTOR('',#529,1000.);
#126=VECTOR('',#532,1000.);
#127=VECTOR('',#533,1000.);
#128=VECTOR('',#534,1000.);
#129=VECTOR('',#535,1000.);
#130=VECTOR('',#538,1000.);
#131=VECTOR('',#539,1000.);
#132=VECTOR('',#542,1000.);
#133=VECTOR('',#543,1000.);
#134=ORIENTED_EDGE('',*,*,#218,.F.);
#135=ORIENTED_EDGE('',*,*,#219,.F.);
#136=ORIENTED_EDGE('',*,*,#220,.T.);
#137=ORIENTED_EDGE('',*,*,#221,.T.);
#138=ORIENTED_EDGE('',*,*,#222,.T.);
#139=ORIENTED_EDGE('',*,*,#223,.F.);
#140=ORIENTED_EDGE('',*,*,#224,.F.);
#141=ORIENTED_EDGE('',*,*,#225,.T.);
#142=ORIENTED_EDGE('',*,*,#226,.T.);
#143=ORIENTED_EDGE('',*,*,#225,.F.);
#144=ORIENTED_EDGE('',*,*,#227,.F.);
#145=ORIENTED_EDGE('',*,*,#223,.T.);
#146=ORIENTED_EDGE('',*,*,#228,.F.);
#147=ORIENTED_EDGE('',*,*,#221,.F.);
#148=ORIENTED_EDGE('',*,*,#229,.T.);
#149=ORIENTED_EDGE('',*,*,#219,.T.);
#150=ORIENTED_EDGE('',*,*,#224,.T.);
#151=ORIENTED_EDGE('',*,*,#227,.T.);
#152=ORIENTED_EDGE('',*,*,#220,.F.);
#153=ORIENTED_EDGE('',*,*,#229,.F.);
#154=ORIENTED_EDGE('',*,*,#222,.F.);
#155=ORIENTED_EDGE('',*,*,#226,.F.);
#156=ORIENTED_EDGE('',*,*,#218,.T.);
#157=ORIENTED_EDGE('',*,*,#228,.T.);
#158=ORIENTED_EDGE('',*,*,#230,.F.);
#159=ORIENTED_EDGE('',*,*,#231,.F.);
#160=ORIENTED_EDGE('',*,*,#232,.T.);
#161=ORIENTED_EDGE('',*,*,#233,.T.);
#162=ORIENTED_EDGE('',*,*,#234,.F.);
#163=ORIENTED_EDGE('',*,*,#233,.F.);
#164=ORIENTED_EDGE('',*,*,#235,.T.);
#165=ORIENTED_EDGE('',*,*,#231,.T.);
#166=ORIENTED_EDGE('',*,*,#232,.F.);
#167=ORIENTED_EDGE('',*,*,#235,.F.);
#168=ORIENTED_EDGE('',*,*,#230,.T.);
#169=ORIENTED_EDGE('',*,*,#234,.T.);
#170=ORIENTED_EDGE('',*,*,#236,.F.);
#171=ORIENTED_EDGE('',*,*,#237,.F.);
#172=ORIENTED_EDGE('',*,*,#238,.F.);
#173=ORIENTED_EDGE('',*,*,#239,.T.);
#174=ORIENTED_EDGE('',*,*,#240,.T.);
#175=ORIENTED_EDGE('',*,*,#241,.T.);
#176=ORIENTED_EDGE('',*,*,#242,.F.);
#177=ORIENTED_EDGE('',*,*,#243,.F.);
#178=ORIENTED_EDGE('',*,*,#244,.T.);
#179=ORIENTED_EDGE('',*,*,#240,.F.);
#180=ORIENTED_EDGE('',*,*,#245,.F.);
#181=ORIENTED_EDGE('',*,*,#237,.T.);
#182=ORIENTED_EDGE('',*,*,#246,.T.);
#183=ORIENTED_EDGE('',*,*,#239,.F.);
#184=ORIENTED_EDGE('',*,*,#247,.F.);
#185=ORIENTED_EDGE('',*,*,#242,.T.);
#186=ORIENTED_EDGE('',*,*,#238,.T.);
#187=ORIENTED_EDGE('',*,*,#245,.T.);
#188=ORIENTED_EDGE('',*,*,#243,.T.);
#189=ORIENTED_EDGE('',*,*,#247,.T.);
#190=ORIENTED_EDGE('',*,*,#244,.F.);
#191=ORIENTED_EDGE('',*,*,#236,.T.);
#192=ORIENTED_EDGE('',*,*,#246,.F.);
#193=ORIENTED_EDGE('',*,*,#241,.F.);
#194=ORIENTED_EDGE('',*,*,#248,.F.);
#195=ORIENTED_EDGE('',*,*,#249,.F.);
#196=ORIENTED_EDGE('',*,*,#250,.F.);
#197=ORIENTED_EDGE('',*,*,#251,.T.);
#198=ORIENTED_EDGE('',*,*,#252,.T.);
#199=ORIENTED_EDGE('',*,*,#253,.T.);
#200=ORIENTED_EDGE('',*,*,#254,.F.);
#201=ORIENTED_EDGE('',*,*,#255,.F.);
#202=ORIENTED_EDGE('',*,*,#256,.T.);
#203=ORIENTED_EDGE('',*,*,#252,.F.);
#204=ORIENTED_EDGE('',*,*,#257,.F.);
#205=ORIENTED_EDGE('',*,*,#249,.T.);
#206=ORIENTED_EDGE('',*,*,#258,.T.);
#207=ORIENTED_EDGE('',*,*,#251,.F.);
#208=ORIENTED_EDGE('',*,*,#259,.F.);
#209=ORIENTED_EDGE('',*,*,#254,.T.);
#210=ORIENTED_EDGE('',*,*,#250,.T.);
#211=ORIENTED_EDGE('',*,*,#257,.T.);
#212=ORIENTED_EDGE('',*,*,#255,.T.);
#213=ORIENTED_EDGE('',*,*,#259,.T.);
#214=ORIENTED_EDGE('',*,*,#256,.F.);
#215=ORIENTED_EDGE('',*,*,#248,.T.);
#216=ORIENTED_EDGE('',*,*,#258,.F.);
#217=ORIENTED_EDGE('',*,*,#253,.F.);
#218=EDGE_CURVE('',#260,#261,#288,.T.);
#219=EDGE_CURVE('',#262,#260,#62,.T.);
#220=EDGE_CURVE('',#262,#263,#289,.T.);
#221=EDGE_CURVE('',#263,#261,#63,.T.);
#222=EDGE_CURVE('',#264,#265,#64,.T.);
#223=EDGE_CURVE('',#266,#265,#65,.T.);
#224=EDGE_CURVE('',#267,#266,#66,.T.);
#225=EDGE_CURVE('',#267,#264,#67,.T.);
#226=EDGE_CURVE('',#265,#264,#290,.T.);
#227=EDGE_CURVE('',#266,#267,#291,.T.);
#228=EDGE_CURVE('',#261,#260,#68,.T.);
#229=EDGE_CURVE('',#263,#262,#69,.T.);
#230=EDGE_CURVE('',#268,#269,#70,.T.);
#231=EDGE_CURVE('',#270,#268,#71,.T.);
#232=EDGE_CURVE('',#270,#271,#72,.T.);
#233=EDGE_CURVE('',#271,#269,#73,.T.);
#234=EDGE_CURVE('',#269,#268,#292,.T.);
#235=EDGE_CURVE('',#271,#270,#293,.T.);
#236=EDGE_CURVE('',#272,#273,#74,.T.);
#237=EDGE_CURVE('',#274,#272,#75,.T.);
#238=EDGE_CURVE('',#275,#274,#76,.T.);
#239=EDGE_CURVE('',#275,#273,#77,.T.);
#240=EDGE_CURVE('',#276,#277,#78,.T.);
#241=EDGE_CURVE('',#277,#278,#79,.T.);
#242=EDGE_CURVE('',#279,#278,#80,.T.);
#243=EDGE_CURVE('',#276,#279,#81,.T.);
#244=EDGE_CURVE('',#272,#277,#82,.T.);
#245=EDGE_CURVE('',#274,#276,#83,.T.);
#246=EDGE_CURVE('',#278,#273,#84,.T.);
#247=EDGE_CURVE('',#279,#275,#85,.T.);
#248=EDGE_CURVE('',#280,#281,#86,.T.);
#249=EDGE_CURVE('',#282,#280,#87,.T.);
#250=EDGE_CURVE('',#283,#282,#88,.T.);
#251=EDGE_CURVE('',#283,#281,#89,.T.);
#252=EDGE_CURVE('',#284,#285,#90,.T.);
#253=EDGE_CURVE('',#285,#286,#91,.T.);
#254=EDGE_CURVE('',#287,#286,#92,.T.);
#255=EDGE_CURVE('',#284,#287,#93,.T.);
#256=EDGE_CURVE('',#280,#285,#94,.T.);
#257=EDGE_CURVE('',#282,#284,#95,.T.);
#258=EDGE_CURVE('',#286,#281,#96,.T.);
#259=EDGE_CURVE('',#287,#283,#97,.T.);
#260=VERTEX_POINT('',#553);
#261=VERTEX_POINT('',#554);
#262=VERTEX_POINT('',#556);
#263=VERTEX_POINT('',#558);
#264=VERTEX_POINT('',#562);
#265=VERTEX_POINT('',#563);
#266=VERTEX_POINT('',#565);
#267=VERTEX_POINT('',#567);
#268=VERTEX_POINT('',#580);
#269=VERTEX_POINT('',#581);
#270=VERTEX_POINT('',#583);
#271=VERTEX_POINT('',#585);
#272=VERTEX_POINT('',#595);
#273=VERTEX_POINT('',#596);
#274=VERTEX_POINT('',#598);
#275=VERTEX_POINT('',#600);
#276=VERTEX_POINT('',#604);
#277=VERTEX_POINT('',#605);
#278=VERTEX_POINT('',#607);
#279=VERTEX_POINT('',#609);
#280=VERTEX_POINT('',#622);
#281=VERTEX_POINT('',#623);
#282=VERTEX_POINT('',#625);
#283=VERTEX_POINT('',#627);
#284=VERTEX_POINT('',#631);
#285=VERTEX_POINT('',#632);
#286=VERTEX_POINT('',#634);
#287=VERTEX_POINT('',#636);
#288=CIRCLE('',#417,6.8);
#289=CIRCLE('',#418,6.8);
#290=CIRCLE('',#421,6.7);
#291=CIRCLE('',#422,6.7);
#292=CIRCLE('',#429,6.7);
#293=CIRCLE('',#430,6.7);
#294=EDGE_LOOP('',(#134,#135,#136,#137));
#295=EDGE_LOOP('',(#138,#139,#140,#141));
#296=EDGE_LOOP('',(#142,#143,#144,#145));
#297=EDGE_LOOP('',(#146,#147,#148,#149));
#298=EDGE_LOOP('',(#150,#151));
#299=EDGE_LOOP('',(#152,#153));
#300=EDGE_LOOP('',(#154,#155));
#301=EDGE_LOOP('',(#156,#157));
#302=EDGE_LOOP('',(#158,#159,#160,#161));
#303=EDGE_LOOP('',(#162,#163,#164,#165));
#304=EDGE_LOOP('',(#166,#167));
#305=EDGE_LOOP('',(#168,#169));
#306=EDGE_LOOP('',(#170,#171,#172,#173));
#307=EDGE_LOOP('',(#174,#175,#176,#177));
#308=EDGE_LOOP('',(#178,#179,#180,#181));
#309=EDGE_LOOP('',(#182,#183,#184,#185));
#310=EDGE_LOOP('',(#186,#187,#188,#189));
#311=EDGE_LOOP('',(#190,#191,#192,#193));
#312=EDGE_LOOP('',(#194,#195,#196,#197));
#313=EDGE_LOOP('',(#198,#199,#200,#201));
#314=EDGE_LOOP('',(#202,#203,#204,#205));
#315=EDGE_LOOP('',(#206,#207,#208,#209));
#316=EDGE_LOOP('',(#210,#211,#212,#213));
#317=EDGE_LOOP('',(#214,#215,#216,#217));
#318=FACE_BOUND('',#294,.T.);
#319=FACE_BOUND('',#295,.T.);
#320=FACE_BOUND('',#296,.T.);
#321=FACE_BOUND('',#297,.T.);
#322=FACE_BOUND('',#298,.T.);
#323=FACE_BOUND('',#299,.T.);
#324=FACE_BOUND('',#300,.T.);
#325=FACE_BOUND('',#301,.T.);
#326=FACE_BOUND('',#302,.T.);
#327=FACE_BOUND('',#303,.T.);
#328=FACE_BOUND('',#304,.T.);
#329=FACE_BOUND('',#305,.T.);
#330=FACE_BOUND('',#306,.T.);
#331=FACE_BOUND('',#307,.T.);
#332=FACE_BOUND('',#308,.T.);
#333=FACE_BOUND('',#309,.T.);
#334=FACE_BOUND('',#310,.T.);
#335=FACE_BOUND('',#311,.T.);
#336=FACE_BOUND('',#312,.T.);
#337=FACE_BOUND('',#313,.T.);
#338=FACE_BOUND('',#314,.T.);
#339=FACE_BOUND('',#315,.T.);
#340=FACE_BOUND('',#316,.T.);
#341=FACE_BOUND('',#317,.T.);
#342=CYLINDRICAL_SURFACE('',#416,6.8);
#343=CYLINDRICAL_SURFACE('',#420,6.7);
#344=CYLINDRICAL_SURFACE('',#428,6.7);
#345=ADVANCED_FACE('',(#318),#342,.T.);
#346=ADVANCED_FACE('',(#319),#43,.F.);
#347=ADVANCED_FACE('',(#320),#343,.F.);
#348=ADVANCED_FACE('',(#321),#44,.T.);
#349=ADVANCED_FACE('',(#322,#323),#45,.F.);
#350=ADVANCED_FACE('',(#324,#325),#46,.T.);
#351=ADVANCED_FACE('',(#326),#47,.T.);
#352=ADVANCED_FACE('',(#327),#344,.T.);
#353=ADVANCED_FACE('',(#328),#48,.F.);
#354=ADVANCED_FACE('',(#329),#49,.T.);
#355=ADVANCED_FACE('',(#330),#50,.F.);
#356=ADVANCED_FACE('',(#331),#51,.T.);
#357=ADVANCED_FACE('',(#332),#52,.F.);
#358=ADVANCED_FACE('',(#333),#53,.F.);
#359=ADVANCED_FACE('',(#334),#54,.T.);
#360=ADVANCED_FACE('',(#335),#55,.T.);
#361=ADVANCED_FACE('',(#336),#56,.F.);
#362=ADVANCED_FACE('',(#337),#57,.T.);
#363=ADVANCED_FACE('',(#338),#58,.F.);
#364=ADVANCED_FACE('',(#339),#59,.F.);
#365=ADVANCED_FACE('',(#340),#60,.T.);
#366=ADVANCED_FACE('',(#341),#61,.T.);
#367=CLOSED_SHELL('',(#345,#346,#347,#348,#349,#350));
#368=CLOSED_SHELL('',(#351,#352,#353,#354));
#369=CLOSED_SHELL('',(#355,#356,#357,#358,#359,#360));
#370=CLOSED_SHELL('',(#361,#362,#363,#364,#365,#366));
#371=STYLED_ITEM('',(#375),#401);
#372=STYLED_ITEM('',(#376),#402);
#373=STYLED_ITEM('',(#377),#403);
#374=STYLED_ITEM('',(#378),#404);
#375=PRESENTATION_STYLE_ASSIGNMENT((#379));
#376=PRESENTATION_STYLE_ASSIGNMENT((#380));
#377=PRESENTATION_STYLE_ASSIGNMENT((#381));
#378=PRESENTATION_STYLE_ASSIGNMENT((#382));
#379=SURFACE_STYLE_USAGE(.BOTH.,#383);
#380=SURFACE_STYLE_USAGE(.BOTH.,#384);
#381=SURFACE_STYLE_USAGE(.BOTH.,#385);
#382=SURFACE_STYLE_USAGE(.BOTH.,#386);
#383=SURFACE_SIDE_STYLE('',(#387));
#384=SURFACE_SIDE_STYLE('',(#388));
#385=SURFACE_SIDE_STYLE('',(#389));
#386=SURFACE_SIDE_STYLE('',(#390));
#387=SURFACE_STYLE_FILL_AREA(#391);
#388=SURFACE_STYLE_FILL_AREA(#392);
#389=SURFACE_STYLE_FILL_AREA(#393);
#390=SURFACE_STYLE_FILL_AREA(#394);
#391=FILL_AREA_STYLE('',(#395));
#392=FILL_AREA_STYLE('',(#396));
#393=FILL_AREA_STYLE('',(#397));
#394=FILL_AREA_STYLE('',(#398));
#395=FILL_AREA_STYLE_COLOUR('',#399);
#396=FILL_AREA_STYLE_COLOUR('',#400);
#397=FILL_AREA_STYLE_COLOUR('',#18);
#398=FILL_AREA_STYLE_COLOUR('',#18);
#399=COLOUR_RGB('',0.75,0.69539999961853,0.555000007152557);
#400=COLOUR_RGB('',0.200000002980232,0.200000002980232,0.200000002980232);
#401=MANIFOLD_SOLID_BREP('',#367);
#402=MANIFOLD_SOLID_BREP('',#368);
#403=MANIFOLD_SOLID_BREP('',#369);
#404=MANIFOLD_SOLID_BREP('',#370);
#405=SHAPE_DEFINITION_REPRESENTATION(#662,#410);
#406=SHAPE_DEFINITION_REPRESENTATION(#661,#411);
#407=SHAPE_DEFINITION_REPRESENTATION(#664,#412);
#408=SHAPE_DEFINITION_REPRESENTATION(#666,#413);
#409=SHAPE_DEFINITION_REPRESENTATION(#668,#414);
#410=SHAPE_REPRESENTATION('Ni-cu',(#415),#649);
#411=SHAPE_REPRESENTATION('303121099',(#415,#426,#433,#440,#447),#648);
#412=SHAPE_REPRESENTATION('Foam',(#415),#650);
#413=SHAPE_REPRESENTATION('Glue',(#415),#651);
#414=SHAPE_REPRESENTATION('Release tape',(#415),#652);
#415=AXIS2_PLACEMENT_3D('',#550,#448,#449);
#416=AXIS2_PLACEMENT_3D('',#551,#450,#451);
#417=AXIS2_PLACEMENT_3D('',#552,#452,#453);
#418=AXIS2_PLACEMENT_3D('',#557,#455,#456);
#419=AXIS2_PLACEMENT_3D('',#560,#458,#459);
#420=AXIS2_PLACEMENT_3D('',#569,#464,#465);
#421=AXIS2_PLACEMENT_3D('',#570,#466,#467);
#422=AXIS2_PLACEMENT_3D('',#571,#468,#469);
#423=AXIS2_PLACEMENT_3D('',#572,#470,#471);
#424=AXIS2_PLACEMENT_3D('',#575,#474,#475);
#425=AXIS2_PLACEMENT_3D('',#576,#476,#477);
#426=AXIS2_PLACEMENT_3D('',#577,#478,#479);
#427=AXIS2_PLACEMENT_3D('',#578,#480,#481);
#428=AXIS2_PLACEMENT_3D('',#587,#486,#487);
#429=AXIS2_PLACEMENT_3D('',#588,#488,#489);
#430=AXIS2_PLACEMENT_3D('',#589,#490,#491);
#431=AXIS2_PLACEMENT_3D('',#590,#492,#493);
#432=AXIS2_PLACEMENT_3D('',#591,#494,#495);
#433=AXIS2_PLACEMENT_3D('',#592,#496,#497);
#434=AXIS2_PLACEMENT_3D('',#593,#498,#499);
#435=AXIS2_PLACEMENT_3D('',#602,#504,#505);
#436=AXIS2_PLACEMENT_3D('',#611,#510,#511);
#437=AXIS2_PLACEMENT_3D('',#614,#514,#515);
#438=AXIS2_PLACEMENT_3D('',#617,#518,#519);
#439=AXIS2_PLACEMENT_3D('',#618,#520,#521);
#440=AXIS2_PLACEMENT_3D('',#619,#522,#523);
#441=AXIS2_PLACEMENT_3D('',#620,#524,#525);
#442=AXIS2_PLACEMENT_3D('',#629,#530,#531);
#443=AXIS2_PLACEMENT_3D('',#638,#536,#537);
#444=AXIS2_PLACEMENT_3D('',#641,#540,#541);
#445=AXIS2_PLACEMENT_3D('',#644,#544,#545);
#446=AXIS2_PLACEMENT_3D('',#645,#546,#547);
#447=AXIS2_PLACEMENT_3D('',#646,#548,#549);
#448=DIRECTION('',(0.,0.,1.));
#449=DIRECTION('',(1.,0.,0.));
#450=DIRECTION('',(0.,1.,0.));
#451=DIRECTION('',(0.,0.,1.));
#452=DIRECTION('',(0.,1.,0.));
#453=DIRECTION('',(0.,0.,-1.));
#454=DIRECTION('',(0.,1.,0.));
#455=DIRECTION('',(0.,1.,0.));
#456=DIRECTION('',(0.,0.,-1.));
#457=DIRECTION('',(0.,1.,0.));
#458=DIRECTION('',(0.,0.,-1.));
#459=DIRECTION('',(-1.,0.,0.));
#460=DIRECTION('',(-1.,0.,0.));
#461=DIRECTION('',(0.,1.,0.));
#462=DIRECTION('',(-1.,0.,0.));
#463=DIRECTION('',(0.,1.,0.));
#464=DIRECTION('',(0.,1.,0.));
#465=DIRECTION('',(0.,0.,1.));
#466=DIRECTION('',(0.,1.,0.));
#467=DIRECTION('',(0.,0.,-1.));
#468=DIRECTION('',(0.,1.,0.));
#469=DIRECTION('',(0.,0.,-1.));
#470=DIRECTION('',(0.,0.,-1.));
#471=DIRECTION('',(-1.,0.,0.));
#472=DIRECTION('',(-1.,0.,0.));
#473=DIRECTION('',(-1.,0.,0.));
#474=DIRECTION('',(0.,1.,0.));
#475=DIRECTION('',(0.,0.,1.));
#476=DIRECTION('',(0.,1.,0.));
#477=DIRECTION('',(0.,0.,1.));
#478=DIRECTION('',(0.,0.,1.));
#479=DIRECTION('',(1.,0.,0.));
#480=DIRECTION('',(0.,0.,-1.));
#481=DIRECTION('',(-1.,0.,0.));
#482=DIRECTION('',(-1.,0.,0.));
#483=DIRECTION('',(0.,1.,0.));
#484=DIRECTION('',(-1.,0.,0.));
#485=DIRECTION('',(0.,1.,0.));
#486=DIRECTION('',(0.,1.,0.));
#487=DIRECTION('',(0.,0.,1.));
#488=DIRECTION('',(0.,1.,0.));
#489=DIRECTION('',(0.,0.,-1.));
#490=DIRECTION('',(0.,1.,0.));
#491=DIRECTION('',(0.,0.,-1.));
#492=DIRECTION('',(0.,1.,0.));
#493=DIRECTION('',(0.,0.,1.));
#494=DIRECTION('',(0.,1.,0.));
#495=DIRECTION('',(0.,0.,1.));
#496=DIRECTION('',(0.,0.,1.));
#497=DIRECTION('',(1.,0.,0.));
#498=DIRECTION('',(0.,1.,0.));
#499=DIRECTION('',(0.,0.,1.));
#500=DIRECTION('',(1.,0.,0.));
#501=DIRECTION('',(0.,0.,1.));
#502=DIRECTION('',(-1.,0.,0.));
#503=DIRECTION('',(0.,0.,1.));
#504=DIRECTION('',(0.,1.,0.));
#505=DIRECTION('',(0.,0.,1.));
#506=DIRECTION('',(0.,0.,1.));
#507=DIRECTION('',(1.,0.,0.));
#508=DIRECTION('',(0.,0.,1.));
#509=DIRECTION('',(1.,0.,0.));
#510=DIRECTION('',(1.,-1.22299228048645E-16,0.));
#511=DIRECTION('',(1.22299228048645E-16,1.,0.));
#512=DIRECTION('',(1.22299228048645E-16,1.,0.));
#513=DIRECTION('',(1.22299228048645E-16,1.,0.));
#514=DIRECTION('',(-1.,0.,0.));
#515=DIRECTION('',(0.,0.,1.));
#516=DIRECTION('',(0.,-1.,0.));
#517=DIRECTION('',(0.,-1.,0.));
#518=DIRECTION('',(0.,0.,-1.));
#519=DIRECTION('',(-1.,0.,0.));
#520=DIRECTION('',(0.,0.,1.));
#521=DIRECTION('',(1.,0.,0.));
#522=DIRECTION('',(0.,0.,1.));
#523=DIRECTION('',(1.,0.,0.));
#524=DIRECTION('',(0.,1.,0.));
#525=DIRECTION('',(0.,0.,1.));
#526=DIRECTION('',(1.,0.,0.));
#527=DIRECTION('',(0.,0.,1.));
#528=DIRECTION('',(-1.,0.,0.));
#529=DIRECTION('',(0.,0.,1.));
#530=DIRECTION('',(0.,1.,0.));
#531=DIRECTION('',(0.,0.,1.));
#532=DIRECTION('',(0.,0.,1.));
#533=DIRECTION('',(1.,0.,0.));
#534=DIRECTION('',(0.,0.,1.));
#535=DIRECTION('',(1.,0.,0.));
#536=DIRECTION('',(1.,-1.22299228048645E-16,0.));
#537=DIRECTION('',(1.22299228048645E-16,1.,0.));
#538=DIRECTION('',(1.22299228048645E-16,1.,0.));
#539=DIRECTION('',(1.22299228048645E-16,1.,0.));
#540=DIRECTION('',(-1.,0.,0.));
#541=DIRECTION('',(0.,0.,1.));
#542=DIRECTION('',(0.,-1.,0.));
#543=DIRECTION('',(0.,-1.,0.));
#544=DIRECTION('',(0.,0.,-1.));
#545=DIRECTION('',(-1.,0.,0.));
#546=DIRECTION('',(0.,0.,1.));
#547=DIRECTION('',(1.,0.,0.));
#548=DIRECTION('',(0.,0.,1.));
#549=DIRECTION('',(1.,0.,0.));
#550=CARTESIAN_POINT('',(0.,0.,0.));
#551=CARTESIAN_POINT('',(-3.90312782094782E-15,-500.,-1.8));
#552=CARTESIAN_POINT('',(-3.90312782094782E-15,500.,-1.8));
#553=CARTESIAN_POINT('',(-6.,500.,-5.));
#554=CARTESIAN_POINT('',(6.,500.,-5.));
#555=CARTESIAN_POINT('',(-6.,-500.,-5.));
#556=CARTESIAN_POINT('',(-6.,-500.,-5.));
#557=CARTESIAN_POINT('',(-3.90312782094782E-15,-500.,-1.8));
#558=CARTESIAN_POINT('',(6.,-500.,-5.));
#559=CARTESIAN_POINT('',(6.,-500.,-5.));
#560=CARTESIAN_POINT('',(5.93969696196699,-500.,-4.9));
#561=CARTESIAN_POINT('',(5.93969696196699,500.,-4.9));
#562=CARTESIAN_POINT('',(5.93969696196699,500.,-4.9));
#563=CARTESIAN_POINT('',(-5.939696961967,500.,-4.9));
#564=CARTESIAN_POINT('',(-5.939696961967,-500.,-4.9));
#565=CARTESIAN_POINT('',(-5.939696961967,-500.,-4.9));
#566=CARTESIAN_POINT('',(5.93969696196699,-500.,-4.9));
#567=CARTESIAN_POINT('',(5.93969696196699,-500.,-4.9));
#568=CARTESIAN_POINT('',(5.93969696196699,-500.,-4.9));
#569=CARTESIAN_POINT('',(-3.90312782094782E-15,-500.,-1.8));
#570=CARTESIAN_POINT('',(-3.90312782094782E-15,500.,-1.8));
#571=CARTESIAN_POINT('',(-3.90312782094782E-15,-500.,-1.8));
#572=CARTESIAN_POINT('',(6.,-500.,-5.));
#573=CARTESIAN_POINT('',(6.,500.,-5.));
#574=CARTESIAN_POINT('',(6.,-500.,-5.));
#575=CARTESIAN_POINT('',(-3.90312782094782E-15,-500.,-1.8));
#576=CARTESIAN_POINT('',(-3.90312782094782E-15,500.,-1.8));
#577=CARTESIAN_POINT('',(0.,0.,0.));
#578=CARTESIAN_POINT('',(5.93969696196699,-500.,-4.9));
#579=CARTESIAN_POINT('',(5.93969696196699,500.,-4.9));
#580=CARTESIAN_POINT('',(5.93969696196699,500.,-4.9));
#581=CARTESIAN_POINT('',(-5.939696961967,500.,-4.9));
#582=CARTESIAN_POINT('',(5.93969696196699,-500.,-4.9));
#583=CARTESIAN_POINT('',(5.93969696196699,-500.,-4.9));
#584=CARTESIAN_POINT('',(5.93969696196699,-500.,-4.9));
#585=CARTESIAN_POINT('',(-5.939696961967,-500.,-4.9));
#586=CARTESIAN_POINT('',(-5.939696961967,-500.,-4.9));
#587=CARTESIAN_POINT('',(-3.90312782094782E-15,-500.,-1.8));
#588=CARTESIAN_POINT('',(-3.90312782094782E-15,500.,-1.8));
#589=CARTESIAN_POINT('',(-3.90312782094782E-15,-500.,-1.8));
#590=CARTESIAN_POINT('',(-3.90312782094782E-15,-500.,-1.8));
#591=CARTESIAN_POINT('',(-3.90312782094782E-15,500.,-1.8));
#592=CARTESIAN_POINT('',(6.93889390390723E-15,0.,0.));
#593=CARTESIAN_POINT('',(-3.90312782094782E-15,-499.995,-1.8));
#594=CARTESIAN_POINT('',(-6.,-499.995,-5.));
#595=CARTESIAN_POINT('',(-2.49999999999997,-499.995,-5.));
#596=CARTESIAN_POINT('',(2.49999999999997,-499.995,-5.));
#597=CARTESIAN_POINT('',(-2.50000000000003,-499.995,-5.05));
#598=CARTESIAN_POINT('',(-2.50000000000003,-499.995,-5.05));
#599=CARTESIAN_POINT('',(2.49999999999997,-499.995,-5.05));
#600=CARTESIAN_POINT('',(2.49999999999997,-499.995,-5.05));
#601=CARTESIAN_POINT('',(2.49999999999997,-499.995,-5.05));
#602=CARTESIAN_POINT('',(-3.90312782094782E-15,499.995,-1.8));
#603=CARTESIAN_POINT('',(-2.49999999999991,499.995,-5.05));
#604=CARTESIAN_POINT('',(-2.49999999999991,499.995,-5.05));
#605=CARTESIAN_POINT('',(-2.49999999999997,499.995,-5.));
#606=CARTESIAN_POINT('',(-6.,499.995,-5.));
#607=CARTESIAN_POINT('',(2.49999999999997,499.995,-5.));
#608=CARTESIAN_POINT('',(2.49999999999997,499.995,-5.05));
#609=CARTESIAN_POINT('',(2.49999999999997,499.995,-5.05));
#610=CARTESIAN_POINT('',(-2.49999999999991,499.995,-5.05));
#611=CARTESIAN_POINT('',(-2.50000000000003,-499.995,-5.05));
#612=CARTESIAN_POINT('',(-2.50000000000003,-499.995,-5.));
#613=CARTESIAN_POINT('',(-2.50000000000003,-499.995,-5.05));
#614=CARTESIAN_POINT('',(2.49999999999997,499.995,-5.05));
#615=CARTESIAN_POINT('',(2.49999999999997,499.995,-5.));
#616=CARTESIAN_POINT('',(2.49999999999997,499.995,-5.05));
#617=CARTESIAN_POINT('',(-2.50000000000003,-499.995,-5.05));
#618=CARTESIAN_POINT('',(-6.,-499.995,-5.));
#619=CARTESIAN_POINT('',(0.,0.,0.));
#620=CARTESIAN_POINT('',(-3.90312782094782E-15,-499.995,-1.8));
#621=CARTESIAN_POINT('',(-6.,-499.995,-5.));
#622=CARTESIAN_POINT('',(-2.49999999999997,-499.995,-5.));
#623=CARTESIAN_POINT('',(2.49999999999997,-499.995,-5.));
#624=CARTESIAN_POINT('',(-2.50000000000003,-499.995,-5.15));
#625=CARTESIAN_POINT('',(-2.50000000000003,-499.995,-5.15));
#626=CARTESIAN_POINT('',(2.49999999999997,-499.995,-5.15));
#627=CARTESIAN_POINT('',(2.49999999999997,-499.995,-5.15));
#628=CARTESIAN_POINT('',(2.49999999999997,-499.995,-5.15));
#629=CARTESIAN_POINT('',(-3.90312782094782E-15,499.995,-1.8));
#630=CARTESIAN_POINT('',(-2.49999999999991,499.995,-5.15));
#631=CARTESIAN_POINT('',(-2.49999999999991,499.995,-5.15));
#632=CARTESIAN_POINT('',(-2.49999999999997,499.995,-5.));
#633=CARTESIAN_POINT('',(-6.,499.995,-5.));
#634=CARTESIAN_POINT('',(2.49999999999997,499.995,-5.));
#635=CARTESIAN_POINT('',(2.49999999999997,499.995,-5.15));
#636=CARTESIAN_POINT('',(2.49999999999997,499.995,-5.15));
#637=CARTESIAN_POINT('',(-2.49999999999991,499.995,-5.15));
#638=CARTESIAN_POINT('',(-2.50000000000003,-499.995,-5.15));
#639=CARTESIAN_POINT('',(-2.50000000000003,-499.995,-5.));
#640=CARTESIAN_POINT('',(-2.50000000000003,-499.995,-5.15));
#641=CARTESIAN_POINT('',(2.49999999999997,499.995,-5.15));
#642=CARTESIAN_POINT('',(2.49999999999997,499.995,-5.));
#643=CARTESIAN_POINT('',(2.49999999999997,499.995,-5.15));
#644=CARTESIAN_POINT('',(-2.50000000000003,-499.995,-5.15));
#645=CARTESIAN_POINT('',(-6.,-499.995,-5.));
#646=CARTESIAN_POINT('',(0.,0.,-0.0500000000000014));
#647=MECHANICAL_DESIGN_GEOMETRIC_PRESENTATION_REPRESENTATION('',(#371,#372,
#373,#374),#648);
#648=(
GEOMETRIC_REPRESENTATION_CONTEXT(3)
GLOBAL_UNCERTAINTY_ASSIGNED_CONTEXT((#653))
GLOBAL_UNIT_ASSIGNED_CONTEXT((#660,#659,#658))
REPRESENTATION_CONTEXT('303121099','TOP_LEVEL_ASSEMBLY_PART')
);
#649=(
GEOMETRIC_REPRESENTATION_CONTEXT(3)
GLOBAL_UNCERTAINTY_ASSIGNED_CONTEXT((#654))
GLOBAL_UNIT_ASSIGNED_CONTEXT((#660,#659,#658))
REPRESENTATION_CONTEXT('Ni-cu','COMPONENT_PART')
);
#650=(
GEOMETRIC_REPRESENTATION_CONTEXT(3)
GLOBAL_UNCERTAINTY_ASSIGNED_CONTEXT((#655))
GLOBAL_UNIT_ASSIGNED_CONTEXT((#660,#659,#658))
REPRESENTATION_CONTEXT('Foam','COMPONENT_PART')
);
#651=(
GEOMETRIC_REPRESENTATION_CONTEXT(3)
GLOBAL_UNCERTAINTY_ASSIGNED_CONTEXT((#656))
GLOBAL_UNIT_ASSIGNED_CONTEXT((#660,#659,#658))
REPRESENTATION_CONTEXT('Glue','COMPONENT_PART')
);
#652=(
GEOMETRIC_REPRESENTATION_CONTEXT(3)
GLOBAL_UNCERTAINTY_ASSIGNED_CONTEXT((#657))
GLOBAL_UNIT_ASSIGNED_CONTEXT((#660,#659,#658))
REPRESENTATION_CONTEXT('Release tape','COMPONENT_PART')
);
#653=UNCERTAINTY_MEASURE_WITH_UNIT(LENGTH_MEASURE(0.005),#660,
'DISTANCE_ACCURACY_VALUE','Maximum Tolerance applied to model');
#654=UNCERTAINTY_MEASURE_WITH_UNIT(LENGTH_MEASURE(0.005),#660,
'DISTANCE_ACCURACY_VALUE','Maximum Tolerance applied to model');
#655=UNCERTAINTY_MEASURE_WITH_UNIT(LENGTH_MEASURE(0.005),#660,
'DISTANCE_ACCURACY_VALUE','Maximum Tolerance applied to model');
#656=UNCERTAINTY_MEASURE_WITH_UNIT(LENGTH_MEASURE(0.005),#660,
'DISTANCE_ACCURACY_VALUE','Maximum Tolerance applied to model');
#657=UNCERTAINTY_MEASURE_WITH_UNIT(LENGTH_MEASURE(0.005),#660,
'DISTANCE_ACCURACY_VALUE','Maximum Tolerance applied to model');
#658=(
NAMED_UNIT(*)
SI_UNIT($,.STERADIAN.)
SOLID_ANGLE_UNIT()
);
#659=(
NAMED_UNIT(*)
PLANE_ANGLE_UNIT()
SI_UNIT($,.RADIAN.)
);
#660=(
LENGTH_UNIT()
NAMED_UNIT(*)
SI_UNIT(.MILLI.,.METRE.)
);
#661=PRODUCT_DEFINITION_SHAPE('','',#670);
#662=PRODUCT_DEFINITION_SHAPE('','',#671);
#663=PRODUCT_DEFINITION_SHAPE(' ','NAUO PRDDFN',#23);
#664=PRODUCT_DEFINITION_SHAPE('','',#672);
#665=PRODUCT_DEFINITION_SHAPE(' ','NAUO PRDDFN',#24);
#666=PRODUCT_DEFINITION_SHAPE('','',#673);
#667=PRODUCT_DEFINITION_SHAPE(' ','NAUO PRDDFN',#25);
#668=PRODUCT_DEFINITION_SHAPE('','',#674);
#669=PRODUCT_DEFINITION_SHAPE(' ','NAUO PRDDFN',#26);
#670=PRODUCT_DEFINITION('','',#680,#675);
#671=PRODUCT_DEFINITION('','',#681,#676);
#672=PRODUCT_DEFINITION('','',#682,#677);
#673=PRODUCT_DEFINITION('','',#683,#678);
#674=PRODUCT_DEFINITION('','',#684,#679);
#675=PRODUCT_DEFINITION_CONTEXT('',#706,'design');
#676=PRODUCT_DEFINITION_CONTEXT('',#706,'design');
#677=PRODUCT_DEFINITION_CONTEXT('',#706,'design');
#678=PRODUCT_DEFINITION_CONTEXT('',#706,'design');
#679=PRODUCT_DEFINITION_CONTEXT('',#706,'design');
#680=PRODUCT_DEFINITION_FORMATION_WITH_SPECIFIED_SOURCE('','',#690,
 .NOT_KNOWN.);
#681=PRODUCT_DEFINITION_FORMATION_WITH_SPECIFIED_SOURCE('','',#691,
 .NOT_KNOWN.);
#682=PRODUCT_DEFINITION_FORMATION_WITH_SPECIFIED_SOURCE('','',#692,
 .NOT_KNOWN.);
#683=PRODUCT_DEFINITION_FORMATION_WITH_SPECIFIED_SOURCE('','',#693,
 .NOT_KNOWN.);
#684=PRODUCT_DEFINITION_FORMATION_WITH_SPECIFIED_SOURCE('','',#694,
 .NOT_KNOWN.);
#685=PRODUCT_RELATED_PRODUCT_CATEGORY('','',(#690));
#686=PRODUCT_RELATED_PRODUCT_CATEGORY('','',(#691));
#687=PRODUCT_RELATED_PRODUCT_CATEGORY('','',(#692));
#688=PRODUCT_RELATED_PRODUCT_CATEGORY('','',(#693));
#689=PRODUCT_RELATED_PRODUCT_CATEGORY('','',(#694));
#690=PRODUCT('303121099','303121099','303121099',(#700));
#691=PRODUCT('Ni-cu','Ni-cu','Ni-cu',(#701));
#692=PRODUCT('Foam','Foam','Foam',(#702));
#693=PRODUCT('Glue','Glue','Glue',(#703));
#694=PRODUCT('Release tape','Release tape','Release tape',(#704));
#695=PRODUCT_CATEGORY('','');
#696=PRODUCT_CATEGORY('','');
#697=PRODUCT_CATEGORY('','');
#698=PRODUCT_CATEGORY('','');
#699=PRODUCT_CATEGORY('','');
#700=PRODUCT_CONTEXT('',#706,'mechanical');
#701=PRODUCT_CONTEXT('',#706,'mechanical');
#702=PRODUCT_CONTEXT('',#706,'mechanical');
#703=PRODUCT_CONTEXT('',#706,'mechanical');
#704=PRODUCT_CONTEXT('',#706,'mechanical');
#705=APPLICATION_PROTOCOL_DEFINITION('international standard',
'automotive_design',2010,#706);
#706=APPLICATION_CONTEXT(
'core data for automotive mechanical design processes');
ENDSEC;
END-ISO-10303-21;
