ISO-10303-21;
HEADER;
/* Generated by software containing ST-Developer
 * from STEP Tools, Inc. (www.steptools.com) 
 */
/* OPTION: strings as raw bytes, not using required /X/ escapes */

FILE_DESCRIPTION(
/* description */ ('Unknown'),
/* implementation_level */ '2;1');

FILE_NAME(
/* name */ '303060299',
/* time_stamp */ '2024-09-18T15:26:44+08:00',
/* author */ ('Unknown'),
/* organization */ ('Unknown'),
/* preprocessor_version */ 'ST-DEVELOPER v19.4',
/* originating_system */ 'Solid Edge',
/* authorisation */ 'Unknown');

FILE_SCHEMA (('AUTOMOTIVE_DESIGN {1 0 10303 214 3 1 1}'));
ENDSEC;

DATA;
#10=PROPERTY_DEFINITION_REPRESENTATION(#14,#12);
#11=PROPERTY_DEFINITION_REPRESENTATION(#15,#13);
#12=REPRESENTATION('',(#16),#479);
#13=REPRESENTATION('',(#17),#479);
#14=PROPERTY_DEFINITION('pmi validation property','',#490);
#15=PROPERTY_DEFINITION('pmi validation property','',#490);
#16=VALUE_REPRESENTATION_ITEM('number of annotations',COUNT_MEASURE(0.));
#17=VALUE_REPRESENTATION_ITEM('number of views',COUNT_MEASURE(0.));
#18=DRAUGHTING_PRE_DEFINED_COLOUR('white');
#19=CONTEXT_DEPENDENT_SHAPE_REPRESENTATION(#25,#492);
#20=CONTEXT_DEPENDENT_SHAPE_REPRESENTATION(#26,#494);
#21=CONTEXT_DEPENDENT_SHAPE_REPRESENTATION(#27,#496);
#22=NEXT_ASSEMBLY_USAGE_OCCURRENCE('NiCu-woven','NiCu-woven',
'NiCu-woven',#497,#498,'');
#23=NEXT_ASSEMBLY_USAGE_OCCURRENCE('Foam','Foam','Foam',#497,#499,'');
#24=NEXT_ASSEMBLY_USAGE_OCCURRENCE('Glue','Glue','Glue',#497,#500,'');
#25=(
REPRESENTATION_RELATIONSHIP(' ',' ',#302,#303)
REPRESENTATION_RELATIONSHIP_WITH_TRANSFORMATION(#28)
SHAPE_REPRESENTATION_RELATIONSHIP()
);
#26=(
REPRESENTATION_RELATIONSHIP(' ',' ',#304,#303)
REPRESENTATION_RELATIONSHIP_WITH_TRANSFORMATION(#29)
SHAPE_REPRESENTATION_RELATIONSHIP()
);
#27=(
REPRESENTATION_RELATIONSHIP(' ',' ',#305,#303)
REPRESENTATION_RELATIONSHIP_WITH_TRANSFORMATION(#30)
SHAPE_REPRESENTATION_RELATIONSHIP()
);
#28=ITEM_DEFINED_TRANSFORMATION(' ',' ',#306,#317);
#29=ITEM_DEFINED_TRANSFORMATION(' ',' ',#306,#324);
#30=ITEM_DEFINED_TRANSFORMATION(' ',' ',#306,#331);
#31=SHAPE_REPRESENTATION_RELATIONSHIP('','',#302,#34);
#32=SHAPE_REPRESENTATION_RELATIONSHIP('','',#304,#35);
#33=SHAPE_REPRESENTATION_RELATIONSHIP('','',#305,#36);
#34=ADVANCED_BREP_SHAPE_REPRESENTATION('',(#295),#480);
#35=ADVANCED_BREP_SHAPE_REPRESENTATION('',(#296),#481);
#36=ADVANCED_BREP_SHAPE_REPRESENTATION('',(#297),#482);
#37=PLANE('',#310);
#38=PLANE('',#314);
#39=PLANE('',#315);
#40=PLANE('',#316);
#41=PLANE('',#318);
#42=PLANE('',#322);
#43=PLANE('',#323);
#44=PLANE('',#325);
#45=PLANE('',#326);
#46=PLANE('',#327);
#47=PLANE('',#328);
#48=PLANE('',#329);
#49=PLANE('',#330);
#50=LINE('',#413,#74);
#51=LINE('',#417,#75);
#52=LINE('',#419,#76);
#53=LINE('',#422,#77);
#54=LINE('',#424,#78);
#55=LINE('',#426,#79);
#56=LINE('',#431,#80);
#57=LINE('',#432,#81);
#58=LINE('',#437,#82);
#59=LINE('',#440,#83);
#60=LINE('',#442,#84);
#61=LINE('',#444,#85);
#62=LINE('',#452,#86);
#63=LINE('',#455,#87);
#64=LINE('',#457,#88);
#65=LINE('',#459,#89);
#66=LINE('',#461,#90);
#67=LINE('',#464,#91);
#68=LINE('',#466,#92);
#69=LINE('',#468,#93);
#70=LINE('',#470,#94);
#71=LINE('',#471,#95);
#72=LINE('',#473,#96);
#73=LINE('',#474,#97);
#74=VECTOR('',#338,1000.);
#75=VECTOR('',#341,1000.);
#76=VECTOR('',#344,1000.);
#77=VECTOR('',#345,1000.);
#78=VECTOR('',#346,1000.);
#79=VECTOR('',#347,1000.);
#80=VECTOR('',#356,1000.);
#81=VECTOR('',#357,1000.);
#82=VECTOR('',#366,1000.);
#83=VECTOR('',#367,1000.);
#84=VECTOR('',#368,1000.);
#85=VECTOR('',#369,1000.);
#86=VECTOR('',#384,1000.);
#87=VECTOR('',#385,1000.);
#88=VECTOR('',#386,1000.);
#89=VECTOR('',#387,1000.);
#90=VECTOR('',#390,1000.);
#91=VECTOR('',#391,1000.);
#92=VECTOR('',#392,1000.);
#93=VECTOR('',#393,1000.);
#94=VECTOR('',#396,1000.);
#95=VECTOR('',#397,1000.);
#96=VECTOR('',#400,1000.);
#97=VECTOR('',#401,1000.);
#98=ORIENTED_EDGE('',*,*,#158,.F.);
#99=ORIENTED_EDGE('',*,*,#159,.F.);
#100=ORIENTED_EDGE('',*,*,#160,.T.);
#101=ORIENTED_EDGE('',*,*,#161,.T.);
#102=ORIENTED_EDGE('',*,*,#162,.T.);
#103=ORIENTED_EDGE('',*,*,#163,.F.);
#104=ORIENTED_EDGE('',*,*,#164,.F.);
#105=ORIENTED_EDGE('',*,*,#165,.T.);
#106=ORIENTED_EDGE('',*,*,#166,.T.);
#107=ORIENTED_EDGE('',*,*,#165,.F.);
#108=ORIENTED_EDGE('',*,*,#167,.F.);
#109=ORIENTED_EDGE('',*,*,#163,.T.);
#110=ORIENTED_EDGE('',*,*,#168,.F.);
#111=ORIENTED_EDGE('',*,*,#161,.F.);
#112=ORIENTED_EDGE('',*,*,#169,.T.);
#113=ORIENTED_EDGE('',*,*,#159,.T.);
#114=ORIENTED_EDGE('',*,*,#164,.T.);
#115=ORIENTED_EDGE('',*,*,#167,.T.);
#116=ORIENTED_EDGE('',*,*,#160,.F.);
#117=ORIENTED_EDGE('',*,*,#169,.F.);
#118=ORIENTED_EDGE('',*,*,#162,.F.);
#119=ORIENTED_EDGE('',*,*,#166,.F.);
#120=ORIENTED_EDGE('',*,*,#158,.T.);
#121=ORIENTED_EDGE('',*,*,#168,.T.);
#122=ORIENTED_EDGE('',*,*,#170,.F.);
#123=ORIENTED_EDGE('',*,*,#171,.F.);
#124=ORIENTED_EDGE('',*,*,#172,.T.);
#125=ORIENTED_EDGE('',*,*,#173,.T.);
#126=ORIENTED_EDGE('',*,*,#174,.F.);
#127=ORIENTED_EDGE('',*,*,#173,.F.);
#128=ORIENTED_EDGE('',*,*,#175,.T.);
#129=ORIENTED_EDGE('',*,*,#171,.T.);
#130=ORIENTED_EDGE('',*,*,#172,.F.);
#131=ORIENTED_EDGE('',*,*,#175,.F.);
#132=ORIENTED_EDGE('',*,*,#170,.T.);
#133=ORIENTED_EDGE('',*,*,#174,.T.);
#134=ORIENTED_EDGE('',*,*,#176,.F.);
#135=ORIENTED_EDGE('',*,*,#177,.F.);
#136=ORIENTED_EDGE('',*,*,#178,.F.);
#137=ORIENTED_EDGE('',*,*,#179,.T.);
#138=ORIENTED_EDGE('',*,*,#180,.T.);
#139=ORIENTED_EDGE('',*,*,#181,.T.);
#140=ORIENTED_EDGE('',*,*,#182,.F.);
#141=ORIENTED_EDGE('',*,*,#183,.F.);
#142=ORIENTED_EDGE('',*,*,#184,.T.);
#143=ORIENTED_EDGE('',*,*,#180,.F.);
#144=ORIENTED_EDGE('',*,*,#185,.F.);
#145=ORIENTED_EDGE('',*,*,#177,.T.);
#146=ORIENTED_EDGE('',*,*,#186,.T.);
#147=ORIENTED_EDGE('',*,*,#179,.F.);
#148=ORIENTED_EDGE('',*,*,#187,.F.);
#149=ORIENTED_EDGE('',*,*,#182,.T.);
#150=ORIENTED_EDGE('',*,*,#178,.T.);
#151=ORIENTED_EDGE('',*,*,#185,.T.);
#152=ORIENTED_EDGE('',*,*,#183,.T.);
#153=ORIENTED_EDGE('',*,*,#187,.T.);
#154=ORIENTED_EDGE('',*,*,#184,.F.);
#155=ORIENTED_EDGE('',*,*,#176,.T.);
#156=ORIENTED_EDGE('',*,*,#186,.F.);
#157=ORIENTED_EDGE('',*,*,#181,.F.);
#158=EDGE_CURVE('',#188,#189,#208,.T.);
#159=EDGE_CURVE('',#190,#188,#50,.T.);
#160=EDGE_CURVE('',#190,#191,#209,.T.);
#161=EDGE_CURVE('',#191,#189,#51,.T.);
#162=EDGE_CURVE('',#192,#193,#52,.T.);
#163=EDGE_CURVE('',#194,#193,#53,.T.);
#164=EDGE_CURVE('',#195,#194,#54,.T.);
#165=EDGE_CURVE('',#195,#192,#55,.T.);
#166=EDGE_CURVE('',#193,#192,#210,.T.);
#167=EDGE_CURVE('',#194,#195,#211,.T.);
#168=EDGE_CURVE('',#189,#188,#56,.T.);
#169=EDGE_CURVE('',#191,#190,#57,.T.);
#170=EDGE_CURVE('',#196,#197,#58,.T.);
#171=EDGE_CURVE('',#198,#196,#59,.T.);
#172=EDGE_CURVE('',#198,#199,#60,.T.);
#173=EDGE_CURVE('',#199,#197,#61,.T.);
#174=EDGE_CURVE('',#197,#196,#212,.T.);
#175=EDGE_CURVE('',#199,#198,#213,.T.);
#176=EDGE_CURVE('',#200,#201,#62,.T.);
#177=EDGE_CURVE('',#202,#200,#63,.T.);
#178=EDGE_CURVE('',#203,#202,#64,.T.);
#179=EDGE_CURVE('',#203,#201,#65,.T.);
#180=EDGE_CURVE('',#204,#205,#66,.T.);
#181=EDGE_CURVE('',#205,#206,#67,.T.);
#182=EDGE_CURVE('',#207,#206,#68,.T.);
#183=EDGE_CURVE('',#204,#207,#69,.T.);
#184=EDGE_CURVE('',#200,#205,#70,.T.);
#185=EDGE_CURVE('',#202,#204,#71,.T.);
#186=EDGE_CURVE('',#206,#201,#72,.T.);
#187=EDGE_CURVE('',#207,#203,#73,.T.);
#188=VERTEX_POINT('',#411);
#189=VERTEX_POINT('',#412);
#190=VERTEX_POINT('',#414);
#191=VERTEX_POINT('',#416);
#192=VERTEX_POINT('',#420);
#193=VERTEX_POINT('',#421);
#194=VERTEX_POINT('',#423);
#195=VERTEX_POINT('',#425);
#196=VERTEX_POINT('',#438);
#197=VERTEX_POINT('',#439);
#198=VERTEX_POINT('',#441);
#199=VERTEX_POINT('',#443);
#200=VERTEX_POINT('',#453);
#201=VERTEX_POINT('',#454);
#202=VERTEX_POINT('',#456);
#203=VERTEX_POINT('',#458);
#204=VERTEX_POINT('',#462);
#205=VERTEX_POINT('',#463);
#206=VERTEX_POINT('',#465);
#207=VERTEX_POINT('',#467);
#208=CIRCLE('',#308,3.25);
#209=CIRCLE('',#309,3.25);
#210=CIRCLE('',#312,3.15);
#211=CIRCLE('',#313,3.15);
#212=CIRCLE('',#320,3.15);
#213=CIRCLE('',#321,3.15);
#214=EDGE_LOOP('',(#98,#99,#100,#101));
#215=EDGE_LOOP('',(#102,#103,#104,#105));
#216=EDGE_LOOP('',(#106,#107,#108,#109));
#217=EDGE_LOOP('',(#110,#111,#112,#113));
#218=EDGE_LOOP('',(#114,#115));
#219=EDGE_LOOP('',(#116,#117));
#220=EDGE_LOOP('',(#118,#119));
#221=EDGE_LOOP('',(#120,#121));
#222=EDGE_LOOP('',(#122,#123,#124,#125));
#223=EDGE_LOOP('',(#126,#127,#128,#129));
#224=EDGE_LOOP('',(#130,#131));
#225=EDGE_LOOP('',(#132,#133));
#226=EDGE_LOOP('',(#134,#135,#136,#137));
#227=EDGE_LOOP('',(#138,#139,#140,#141));
#228=EDGE_LOOP('',(#142,#143,#144,#145));
#229=EDGE_LOOP('',(#146,#147,#148,#149));
#230=EDGE_LOOP('',(#150,#151,#152,#153));
#231=EDGE_LOOP('',(#154,#155,#156,#157));
#232=FACE_BOUND('',#214,.T.);
#233=FACE_BOUND('',#215,.T.);
#234=FACE_BOUND('',#216,.T.);
#235=FACE_BOUND('',#217,.T.);
#236=FACE_BOUND('',#218,.T.);
#237=FACE_BOUND('',#219,.T.);
#238=FACE_BOUND('',#220,.T.);
#239=FACE_BOUND('',#221,.T.);
#240=FACE_BOUND('',#222,.T.);
#241=FACE_BOUND('',#223,.T.);
#242=FACE_BOUND('',#224,.T.);
#243=FACE_BOUND('',#225,.T.);
#244=FACE_BOUND('',#226,.T.);
#245=FACE_BOUND('',#227,.T.);
#246=FACE_BOUND('',#228,.T.);
#247=FACE_BOUND('',#229,.T.);
#248=FACE_BOUND('',#230,.T.);
#249=FACE_BOUND('',#231,.T.);
#250=CYLINDRICAL_SURFACE('',#307,3.25);
#251=CYLINDRICAL_SURFACE('',#311,3.15);
#252=CYLINDRICAL_SURFACE('',#319,3.15);
#253=ADVANCED_FACE('',(#232),#250,.T.);
#254=ADVANCED_FACE('',(#233),#37,.F.);
#255=ADVANCED_FACE('',(#234),#251,.F.);
#256=ADVANCED_FACE('',(#235),#38,.T.);
#257=ADVANCED_FACE('',(#236,#237),#39,.F.);
#258=ADVANCED_FACE('',(#238,#239),#40,.T.);
#259=ADVANCED_FACE('',(#240),#41,.T.);
#260=ADVANCED_FACE('',(#241),#252,.T.);
#261=ADVANCED_FACE('',(#242),#42,.F.);
#262=ADVANCED_FACE('',(#243),#43,.T.);
#263=ADVANCED_FACE('',(#244),#44,.F.);
#264=ADVANCED_FACE('',(#245),#45,.T.);
#265=ADVANCED_FACE('',(#246),#46,.F.);
#266=ADVANCED_FACE('',(#247),#47,.F.);
#267=ADVANCED_FACE('',(#248),#48,.T.);
#268=ADVANCED_FACE('',(#249),#49,.T.);
#269=CLOSED_SHELL('',(#253,#254,#255,#256,#257,#258));
#270=CLOSED_SHELL('',(#259,#260,#261,#262));
#271=CLOSED_SHELL('',(#263,#264,#265,#266,#267,#268));
#272=STYLED_ITEM('',(#275),#295);
#273=STYLED_ITEM('',(#276),#296);
#274=STYLED_ITEM('',(#277),#297);
#275=PRESENTATION_STYLE_ASSIGNMENT((#278));
#276=PRESENTATION_STYLE_ASSIGNMENT((#279));
#277=PRESENTATION_STYLE_ASSIGNMENT((#280));
#278=SURFACE_STYLE_USAGE(.BOTH.,#281);
#279=SURFACE_STYLE_USAGE(.BOTH.,#282);
#280=SURFACE_STYLE_USAGE(.BOTH.,#283);
#281=SURFACE_SIDE_STYLE('',(#284));
#282=SURFACE_SIDE_STYLE('',(#285));
#283=SURFACE_SIDE_STYLE('',(#286));
#284=SURFACE_STYLE_FILL_AREA(#287);
#285=SURFACE_STYLE_FILL_AREA(#288);
#286=SURFACE_STYLE_FILL_AREA(#289);
#287=FILL_AREA_STYLE('',(#290));
#288=FILL_AREA_STYLE('',(#291));
#289=FILL_AREA_STYLE('',(#292));
#290=FILL_AREA_STYLE_COLOUR('',#293);
#291=FILL_AREA_STYLE_COLOUR('',#294);
#292=FILL_AREA_STYLE_COLOUR('',#18);
#293=COLOUR_RGB('',0.75,0.69539999961853,0.555000007152557);
#294=COLOUR_RGB('',0.200000002980232,0.200000002980232,0.200000002980232);
#295=MANIFOLD_SOLID_BREP('',#269);
#296=MANIFOLD_SOLID_BREP('',#270);
#297=MANIFOLD_SOLID_BREP('',#271);
#298=SHAPE_DEFINITION_REPRESENTATION(#491,#302);
#299=SHAPE_DEFINITION_REPRESENTATION(#490,#303);
#300=SHAPE_DEFINITION_REPRESENTATION(#493,#304);
#301=SHAPE_DEFINITION_REPRESENTATION(#495,#305);
#302=SHAPE_REPRESENTATION('NiCu-woven',(#306),#480);
#303=SHAPE_REPRESENTATION('303060299',(#306,#317,#324,#331),#479);
#304=SHAPE_REPRESENTATION('Foam',(#306),#481);
#305=SHAPE_REPRESENTATION('Glue',(#306),#482);
#306=AXIS2_PLACEMENT_3D('',#408,#332,#333);
#307=AXIS2_PLACEMENT_3D('',#409,#334,#335);
#308=AXIS2_PLACEMENT_3D('',#410,#336,#337);
#309=AXIS2_PLACEMENT_3D('',#415,#339,#340);
#310=AXIS2_PLACEMENT_3D('',#418,#342,#343);
#311=AXIS2_PLACEMENT_3D('',#427,#348,#349);
#312=AXIS2_PLACEMENT_3D('',#428,#350,#351);
#313=AXIS2_PLACEMENT_3D('',#429,#352,#353);
#314=AXIS2_PLACEMENT_3D('',#430,#354,#355);
#315=AXIS2_PLACEMENT_3D('',#433,#358,#359);
#316=AXIS2_PLACEMENT_3D('',#434,#360,#361);
#317=AXIS2_PLACEMENT_3D('',#435,#362,#363);
#318=AXIS2_PLACEMENT_3D('',#436,#364,#365);
#319=AXIS2_PLACEMENT_3D('',#445,#370,#371);
#320=AXIS2_PLACEMENT_3D('',#446,#372,#373);
#321=AXIS2_PLACEMENT_3D('',#447,#374,#375);
#322=AXIS2_PLACEMENT_3D('',#448,#376,#377);
#323=AXIS2_PLACEMENT_3D('',#449,#378,#379);
#324=AXIS2_PLACEMENT_3D('',#450,#380,#381);
#325=AXIS2_PLACEMENT_3D('',#451,#382,#383);
#326=AXIS2_PLACEMENT_3D('',#460,#388,#389);
#327=AXIS2_PLACEMENT_3D('',#469,#394,#395);
#328=AXIS2_PLACEMENT_3D('',#472,#398,#399);
#329=AXIS2_PLACEMENT_3D('',#475,#402,#403);
#330=AXIS2_PLACEMENT_3D('',#476,#404,#405);
#331=AXIS2_PLACEMENT_3D('',#477,#406,#407);
#332=DIRECTION('',(0.,0.,1.));
#333=DIRECTION('',(1.,0.,0.));
#334=DIRECTION('',(0.,1.,0.));
#335=DIRECTION('',(0.,0.,1.));
#336=DIRECTION('',(0.,1.,0.));
#337=DIRECTION('',(1.,0.,0.));
#338=DIRECTION('',(0.,1.,0.));
#339=DIRECTION('',(0.,1.,0.));
#340=DIRECTION('',(1.,0.,0.));
#341=DIRECTION('',(0.,1.,0.));
#342=DIRECTION('',(0.,0.,-1.));
#343=DIRECTION('',(-1.,0.,0.));
#344=DIRECTION('',(-1.,0.,0.));
#345=DIRECTION('',(0.,1.,0.));
#346=DIRECTION('',(-1.,0.,0.));
#347=DIRECTION('',(0.,1.,0.));
#348=DIRECTION('',(0.,1.,0.));
#349=DIRECTION('',(0.,0.,1.));
#350=DIRECTION('',(0.,1.,0.));
#351=DIRECTION('',(1.,0.,0.));
#352=DIRECTION('',(0.,1.,0.));
#353=DIRECTION('',(1.,0.,0.));
#354=DIRECTION('',(0.,0.,-1.));
#355=DIRECTION('',(-1.,0.,0.));
#356=DIRECTION('',(-1.,0.,0.));
#357=DIRECTION('',(-1.,0.,0.));
#358=DIRECTION('',(0.,1.,0.));
#359=DIRECTION('',(0.,0.,1.));
#360=DIRECTION('',(0.,1.,0.));
#361=DIRECTION('',(0.,0.,1.));
#362=DIRECTION('',(0.,0.,1.));
#363=DIRECTION('',(1.,0.,0.));
#364=DIRECTION('',(0.,0.,-1.));
#365=DIRECTION('',(-1.,0.,0.));
#366=DIRECTION('',(-1.,0.,0.));
#367=DIRECTION('',(0.,1.,0.));
#368=DIRECTION('',(-1.,0.,0.));
#369=DIRECTION('',(0.,1.,0.));
#370=DIRECTION('',(0.,1.,0.));
#371=DIRECTION('',(0.,0.,1.));
#372=DIRECTION('',(0.,1.,0.));
#373=DIRECTION('',(1.,0.,0.));
#374=DIRECTION('',(0.,1.,0.));
#375=DIRECTION('',(1.,0.,0.));
#376=DIRECTION('',(0.,1.,0.));
#377=DIRECTION('',(0.,0.,1.));
#378=DIRECTION('',(0.,1.,0.));
#379=DIRECTION('',(0.,0.,1.));
#380=DIRECTION('',(-2.0122792321331E-16,3.88578058618805E-16,1.));
#381=DIRECTION('',(1.,-1.94289029309402E-16,2.0122792321331E-16));
#382=DIRECTION('',(0.,1.,0.));
#383=DIRECTION('',(0.,0.,1.));
#384=DIRECTION('',(1.,0.,0.));
#385=DIRECTION('',(0.,0.,1.));
#386=DIRECTION('',(-1.,0.,0.));
#387=DIRECTION('',(0.,0.,1.));
#388=DIRECTION('',(0.,1.,0.));
#389=DIRECTION('',(0.,0.,1.));
#390=DIRECTION('',(0.,0.,1.));
#391=DIRECTION('',(1.,0.,0.));
#392=DIRECTION('',(0.,0.,1.));
#393=DIRECTION('',(1.,0.,0.));
#394=DIRECTION('',(1.,0.,0.));
#395=DIRECTION('',(0.,0.,-1.));
#396=DIRECTION('',(0.,1.,0.));
#397=DIRECTION('',(0.,1.,0.));
#398=DIRECTION('',(-1.,0.,0.));
#399=DIRECTION('',(0.,0.,1.));
#400=DIRECTION('',(0.,-1.,0.));
#401=DIRECTION('',(0.,-1.,0.));
#402=DIRECTION('',(0.,0.,-1.));
#403=DIRECTION('',(-1.,0.,0.));
#404=DIRECTION('',(0.,0.,1.));
#405=DIRECTION('',(1.,0.,0.));
#406=DIRECTION('',(0.,0.,1.));
#407=DIRECTION('',(1.,0.,0.));
#408=CARTESIAN_POINT('',(0.,0.,0.));
#409=CARTESIAN_POINT('',(-3.90312782094782E-15,-500.,-2.25));
#410=CARTESIAN_POINT('',(-3.90312782094782E-15,500.,-2.25));
#411=CARTESIAN_POINT('',(-3.,500.,-1.));
#412=CARTESIAN_POINT('',(3.,500.,-1.));
#413=CARTESIAN_POINT('',(-3.,-500.,-1.));
#414=CARTESIAN_POINT('',(-3.,-500.,-1.));
#415=CARTESIAN_POINT('',(-3.90312782094782E-15,-500.,-2.25));
#416=CARTESIAN_POINT('',(3.,-500.,-1.));
#417=CARTESIAN_POINT('',(3.,-500.,-1.));
#418=CARTESIAN_POINT('',(2.84604989415154,-500.,-0.9));
#419=CARTESIAN_POINT('',(2.84604989415154,500.,-0.9));
#420=CARTESIAN_POINT('',(2.84604989415154,500.,-0.9));
#421=CARTESIAN_POINT('',(-2.84604989415155,500.,-0.900000000000001));
#422=CARTESIAN_POINT('',(-2.84604989415155,-500.,-0.900000000000001));
#423=CARTESIAN_POINT('',(-2.84604989415155,-500.,-0.900000000000001));
#424=CARTESIAN_POINT('',(2.84604989415154,-500.,-0.9));
#425=CARTESIAN_POINT('',(2.84604989415154,-500.,-0.9));
#426=CARTESIAN_POINT('',(2.84604989415154,-500.,-0.9));
#427=CARTESIAN_POINT('',(-3.90312782094782E-15,-500.,-2.25));
#428=CARTESIAN_POINT('',(-3.90312782094782E-15,500.,-2.25));
#429=CARTESIAN_POINT('',(-3.90312782094782E-15,-500.,-2.25));
#430=CARTESIAN_POINT('',(3.,-500.,-1.));
#431=CARTESIAN_POINT('',(3.,500.,-1.));
#432=CARTESIAN_POINT('',(3.,-500.,-1.));
#433=CARTESIAN_POINT('',(-3.90312782094782E-15,-500.,-2.25));
#434=CARTESIAN_POINT('',(-3.90312782094782E-15,500.,-2.25));
#435=CARTESIAN_POINT('',(0.,0.,0.));
#436=CARTESIAN_POINT('',(2.84604989415154,-499.995,-0.9));
#437=CARTESIAN_POINT('',(2.84604989415154,499.995,-0.9));
#438=CARTESIAN_POINT('',(2.84604989415154,499.995,-0.9));
#439=CARTESIAN_POINT('',(-2.84604989415155,499.995,-0.900000000000001));
#440=CARTESIAN_POINT('',(2.84604989415154,-499.995,-0.9));
#441=CARTESIAN_POINT('',(2.84604989415154,-499.995,-0.9));
#442=CARTESIAN_POINT('',(2.84604989415154,-499.995,-0.9));
#443=CARTESIAN_POINT('',(-2.84604989415155,-499.995,-0.900000000000001));
#444=CARTESIAN_POINT('',(-2.84604989415155,-499.995,-0.900000000000001));
#445=CARTESIAN_POINT('',(-3.90312782094782E-15,-499.995,-2.25));
#446=CARTESIAN_POINT('',(-3.90312782094782E-15,499.995,-2.25));
#447=CARTESIAN_POINT('',(-3.90312782094782E-15,-499.995,-2.25));
#448=CARTESIAN_POINT('',(-3.90312782094782E-15,-499.995,-2.25));
#449=CARTESIAN_POINT('',(-3.90312782094782E-15,499.995,-2.25));
#450=CARTESIAN_POINT('',(1.26916243413515E-15,-4.21754645096861E-14,1.40946282423116E-14));
#451=CARTESIAN_POINT('',(-3.90312782094782E-15,-499.995,-2.25));
#452=CARTESIAN_POINT('',(-3.,-499.995,-1.));
#453=CARTESIAN_POINT('',(-1.25000000000003,-499.995,-1.));
#454=CARTESIAN_POINT('',(1.24999999999997,-499.995,-1.));
#455=CARTESIAN_POINT('',(-1.25000000000003,-499.995,-1.05));
#456=CARTESIAN_POINT('',(-1.25000000000003,-499.995,-1.05));
#457=CARTESIAN_POINT('',(1.24999999999997,-499.995,-1.05));
#458=CARTESIAN_POINT('',(1.24999999999997,-499.995,-1.05));
#459=CARTESIAN_POINT('',(1.24999999999997,-499.995,-1.05));
#460=CARTESIAN_POINT('',(-3.90312782094782E-15,499.995,-2.25));
#461=CARTESIAN_POINT('',(-1.25000000000003,499.995,-1.05));
#462=CARTESIAN_POINT('',(-1.25000000000003,499.995,-1.05));
#463=CARTESIAN_POINT('',(-1.25000000000003,499.995,-1.));
#464=CARTESIAN_POINT('',(-3.,499.995,-1.));
#465=CARTESIAN_POINT('',(1.24999999999997,499.995,-1.));
#466=CARTESIAN_POINT('',(1.24999999999997,499.995,-1.05));
#467=CARTESIAN_POINT('',(1.24999999999997,499.995,-1.05));
#468=CARTESIAN_POINT('',(-1.25000000000003,499.995,-1.05));
#469=CARTESIAN_POINT('',(-1.25000000000003,-499.995,-1.05));
#470=CARTESIAN_POINT('',(-1.25000000000003,-499.995,-1.));
#471=CARTESIAN_POINT('',(-1.25000000000003,-499.995,-1.05));
#472=CARTESIAN_POINT('',(1.24999999999997,499.995,-1.05));
#473=CARTESIAN_POINT('',(1.24999999999997,499.995,-1.));
#474=CARTESIAN_POINT('',(1.24999999999997,499.995,-1.05));
#475=CARTESIAN_POINT('',(-1.25000000000003,-499.995,-1.05));
#476=CARTESIAN_POINT('',(-3.,-499.995,-1.));
#477=CARTESIAN_POINT('',(0.,0.,0.));
#478=MECHANICAL_DESIGN_GEOMETRIC_PRESENTATION_REPRESENTATION('',(#272,#273,
#274),#479);
#479=(
GEOMETRIC_REPRESENTATION_CONTEXT(3)
GLOBAL_UNCERTAINTY_ASSIGNED_CONTEXT((#483))
GLOBAL_UNIT_ASSIGNED_CONTEXT((#489,#488,#487))
REPRESENTATION_CONTEXT('303060299','TOP_LEVEL_ASSEMBLY_PART')
);
#480=(
GEOMETRIC_REPRESENTATION_CONTEXT(3)
GLOBAL_UNCERTAINTY_ASSIGNED_CONTEXT((#484))
GLOBAL_UNIT_ASSIGNED_CONTEXT((#489,#488,#487))
REPRESENTATION_CONTEXT('NiCu-woven','COMPONENT_PART')
);
#481=(
GEOMETRIC_REPRESENTATION_CONTEXT(3)
GLOBAL_UNCERTAINTY_ASSIGNED_CONTEXT((#485))
GLOBAL_UNIT_ASSIGNED_CONTEXT((#489,#488,#487))
REPRESENTATION_CONTEXT('Foam','COMPONENT_PART')
);
#482=(
GEOMETRIC_REPRESENTATION_CONTEXT(3)
GLOBAL_UNCERTAINTY_ASSIGNED_CONTEXT((#486))
GLOBAL_UNIT_ASSIGNED_CONTEXT((#489,#488,#487))
REPRESENTATION_CONTEXT('Glue','COMPONENT_PART')
);
#483=UNCERTAINTY_MEASURE_WITH_UNIT(LENGTH_MEASURE(0.005),#489,
'DISTANCE_ACCURACY_VALUE','Maximum Tolerance applied to model');
#484=UNCERTAINTY_MEASURE_WITH_UNIT(LENGTH_MEASURE(0.005),#489,
'DISTANCE_ACCURACY_VALUE','Maximum Tolerance applied to model');
#485=UNCERTAINTY_MEASURE_WITH_UNIT(LENGTH_MEASURE(0.005),#489,
'DISTANCE_ACCURACY_VALUE','Maximum Tolerance applied to model');
#486=UNCERTAINTY_MEASURE_WITH_UNIT(LENGTH_MEASURE(0.005),#489,
'DISTANCE_ACCURACY_VALUE','Maximum Tolerance applied to model');
#487=(
NAMED_UNIT(*)
SI_UNIT($,.STERADIAN.)
SOLID_ANGLE_UNIT()
);
#488=(
NAMED_UNIT(*)
PLANE_ANGLE_UNIT()
SI_UNIT($,.RADIAN.)
);
#489=(
LENGTH_UNIT()
NAMED_UNIT(*)
SI_UNIT(.MILLI.,.METRE.)
);
#490=PRODUCT_DEFINITION_SHAPE('','',#497);
#491=PRODUCT_DEFINITION_SHAPE('','',#498);
#492=PRODUCT_DEFINITION_SHAPE(' ','NAUO PRDDFN',#22);
#493=PRODUCT_DEFINITION_SHAPE('','',#499);
#494=PRODUCT_DEFINITION_SHAPE(' ','NAUO PRDDFN',#23);
#495=PRODUCT_DEFINITION_SHAPE('','',#500);
#496=PRODUCT_DEFINITION_SHAPE(' ','NAUO PRDDFN',#24);
#497=PRODUCT_DEFINITION('','',#505,#501);
#498=PRODUCT_DEFINITION('','',#506,#502);
#499=PRODUCT_DEFINITION('','',#507,#503);
#500=PRODUCT_DEFINITION('','',#508,#504);
#501=PRODUCT_DEFINITION_CONTEXT('',#526,'design');
#502=PRODUCT_DEFINITION_CONTEXT('',#526,'design');
#503=PRODUCT_DEFINITION_CONTEXT('',#526,'design');
#504=PRODUCT_DEFINITION_CONTEXT('',#526,'design');
#505=PRODUCT_DEFINITION_FORMATION_WITH_SPECIFIED_SOURCE('','',#513,
 .NOT_KNOWN.);
#506=PRODUCT_DEFINITION_FORMATION_WITH_SPECIFIED_SOURCE('','',#514,
 .NOT_KNOWN.);
#507=PRODUCT_DEFINITION_FORMATION_WITH_SPECIFIED_SOURCE('','',#515,
 .NOT_KNOWN.);
#508=PRODUCT_DEFINITION_FORMATION_WITH_SPECIFIED_SOURCE('','',#516,
 .NOT_KNOWN.);
#509=PRODUCT_RELATED_PRODUCT_CATEGORY('','',(#513));
#510=PRODUCT_RELATED_PRODUCT_CATEGORY('','',(#514));
#511=PRODUCT_RELATED_PRODUCT_CATEGORY('','',(#515));
#512=PRODUCT_RELATED_PRODUCT_CATEGORY('','',(#516));
#513=PRODUCT('303060299','303060299','303060299',(#521));
#514=PRODUCT('NiCu-woven','NiCu-woven','NiCu-woven',(#522));
#515=PRODUCT('Foam','Foam','Foam',(#523));
#516=PRODUCT('Glue','Glue','Glue',(#524));
#517=PRODUCT_CATEGORY('','');
#518=PRODUCT_CATEGORY('','');
#519=PRODUCT_CATEGORY('','');
#520=PRODUCT_CATEGORY('','');
#521=PRODUCT_CONTEXT('',#526,'mechanical');
#522=PRODUCT_CONTEXT('',#526,'mechanical');
#523=PRODUCT_CONTEXT('',#526,'mechanical');
#524=PRODUCT_CONTEXT('',#526,'mechanical');
#525=APPLICATION_PROTOCOL_DEFINITION('international standard',
'automotive_design',2010,#526);
#526=APPLICATION_CONTEXT(
'core data for automotive mechanical design processes');
ENDSEC;
END-ISO-10303-21;
