ISO-10303-21;
HEADER;
/* Generated by software containing ST-Developer
 * from STEP Tools, Inc. (www.steptools.com) 
 */
/* OPTION: strings as raw bytes, not using required /X/ escapes */

FILE_DESCRIPTION(
/* description */ ('Unknown'),
/* implementation_level */ '2;1');

FILE_NAME(
/* name */ '30303801599',
/* time_stamp */ '2024-10-16T15:55:56+08:00',
/* author */ ('Unknown'),
/* organization */ ('Unknown'),
/* preprocessor_version */ 'ST-DEVELOPER v19.4',
/* originating_system */ 'Solid Edge',
/* authorisation */ 'Unknown');

FILE_SCHEMA (('AUTOMOTIVE_DESIGN {1 0 10303 214 3 1 1}'));
ENDSEC;

DATA;
#10=PROPERTY_DEFINITION_REPRESENTATION(#14,#12);
#11=PROPERTY_DEFINITION_REPRESENTATION(#15,#13);
#12=REPRESENTATION('',(#16),#323);
#13=REPRESENTATION('',(#17),#323);
#14=PROPERTY_DEFINITION('pmi validation property','',#332);
#15=PROPERTY_DEFINITION('pmi validation property','',#332);
#16=VALUE_REPRESENTATION_ITEM('number of annotations',COUNT_MEASURE(0.));
#17=VALUE_REPRESENTATION_ITEM('number of views',COUNT_MEASURE(0.));
#18=CONTEXT_DEPENDENT_SHAPE_REPRESENTATION(#22,#334);
#19=CONTEXT_DEPENDENT_SHAPE_REPRESENTATION(#23,#336);
#20=NEXT_ASSEMBLY_USAGE_OCCURRENCE('D-Profil','D-Profil','D-Profil',#337,
#338,'');
#21=NEXT_ASSEMBLY_USAGE_OCCURRENCE('Adhesive Tape','Adhesive Tape',
'Adhesive Tape',#337,#339,'');
#22=(
REPRESENTATION_RELATIONSHIP(' ',' ',#215,#216)
REPRESENTATION_RELATIONSHIP_WITH_TRANSFORMATION(#24)
SHAPE_REPRESENTATION_RELATIONSHIP()
);
#23=(
REPRESENTATION_RELATIONSHIP(' ',' ',#217,#216)
REPRESENTATION_RELATIONSHIP_WITH_TRANSFORMATION(#25)
SHAPE_REPRESENTATION_RELATIONSHIP()
);
#24=ITEM_DEFINED_TRANSFORMATION(' ',' ',#218,#225);
#25=ITEM_DEFINED_TRANSFORMATION(' ',' ',#218,#232);
#26=SHAPE_REPRESENTATION_RELATIONSHIP('','',#215,#28);
#27=SHAPE_REPRESENTATION_RELATIONSHIP('','',#217,#29);
#28=ADVANCED_BREP_SHAPE_REPRESENTATION('',(#210),#324);
#29=ADVANCED_BREP_SHAPE_REPRESENTATION('',(#211),#325);
#30=PLANE('',#222);
#31=PLANE('',#223);
#32=PLANE('',#224);
#33=PLANE('',#226);
#34=PLANE('',#227);
#35=PLANE('',#228);
#36=PLANE('',#229);
#37=PLANE('',#230);
#38=PLANE('',#231);
#39=LINE('',#284,#55);
#40=LINE('',#288,#56);
#41=LINE('',#290,#57);
#42=LINE('',#291,#58);
#43=LINE('',#296,#59);
#44=LINE('',#299,#60);
#45=LINE('',#301,#61);
#46=LINE('',#303,#62);
#47=LINE('',#305,#63);
#48=LINE('',#307,#64);
#49=LINE('',#309,#65);
#50=LINE('',#311,#66);
#51=LINE('',#313,#67);
#52=LINE('',#315,#68);
#53=LINE('',#317,#69);
#54=LINE('',#318,#70);
#55=VECTOR('',#239,1000.);
#56=VECTOR('',#242,1000.);
#57=VECTOR('',#245,1000.);
#58=VECTOR('',#246,1000.);
#59=VECTOR('',#255,1000.);
#60=VECTOR('',#256,1000.);
#61=VECTOR('',#257,1000.);
#62=VECTOR('',#258,1000.);
#63=VECTOR('',#261,1000.);
#64=VECTOR('',#262,1000.);
#65=VECTOR('',#263,1000.);
#66=VECTOR('',#266,1000.);
#67=VECTOR('',#267,1000.);
#68=VECTOR('',#268,1000.);
#69=VECTOR('',#271,1000.);
#70=VECTOR('',#272,1000.);
#71=ORIENTED_EDGE('',*,*,#107,.F.);
#72=ORIENTED_EDGE('',*,*,#108,.F.);
#73=ORIENTED_EDGE('',*,*,#109,.T.);
#74=ORIENTED_EDGE('',*,*,#110,.T.);
#75=ORIENTED_EDGE('',*,*,#111,.F.);
#76=ORIENTED_EDGE('',*,*,#110,.F.);
#77=ORIENTED_EDGE('',*,*,#112,.T.);
#78=ORIENTED_EDGE('',*,*,#108,.T.);
#79=ORIENTED_EDGE('',*,*,#109,.F.);
#80=ORIENTED_EDGE('',*,*,#112,.F.);
#81=ORIENTED_EDGE('',*,*,#107,.T.);
#82=ORIENTED_EDGE('',*,*,#111,.T.);
#83=ORIENTED_EDGE('',*,*,#113,.T.);
#84=ORIENTED_EDGE('',*,*,#114,.F.);
#85=ORIENTED_EDGE('',*,*,#115,.F.);
#86=ORIENTED_EDGE('',*,*,#116,.T.);
#87=ORIENTED_EDGE('',*,*,#117,.T.);
#88=ORIENTED_EDGE('',*,*,#118,.F.);
#89=ORIENTED_EDGE('',*,*,#119,.F.);
#90=ORIENTED_EDGE('',*,*,#114,.T.);
#91=ORIENTED_EDGE('',*,*,#120,.T.);
#92=ORIENTED_EDGE('',*,*,#121,.F.);
#93=ORIENTED_EDGE('',*,*,#122,.F.);
#94=ORIENTED_EDGE('',*,*,#118,.T.);
#95=ORIENTED_EDGE('',*,*,#123,.T.);
#96=ORIENTED_EDGE('',*,*,#116,.F.);
#97=ORIENTED_EDGE('',*,*,#124,.F.);
#98=ORIENTED_EDGE('',*,*,#121,.T.);
#99=ORIENTED_EDGE('',*,*,#115,.T.);
#100=ORIENTED_EDGE('',*,*,#119,.T.);
#101=ORIENTED_EDGE('',*,*,#122,.T.);
#102=ORIENTED_EDGE('',*,*,#124,.T.);
#103=ORIENTED_EDGE('',*,*,#113,.F.);
#104=ORIENTED_EDGE('',*,*,#123,.F.);
#105=ORIENTED_EDGE('',*,*,#120,.F.);
#106=ORIENTED_EDGE('',*,*,#117,.F.);
#107=EDGE_CURVE('',#125,#126,#137,.T.);
#108=EDGE_CURVE('',#127,#125,#39,.T.);
#109=EDGE_CURVE('',#127,#128,#138,.T.);
#110=EDGE_CURVE('',#128,#126,#40,.T.);
#111=EDGE_CURVE('',#126,#125,#41,.T.);
#112=EDGE_CURVE('',#128,#127,#42,.T.);
#113=EDGE_CURVE('',#129,#130,#43,.T.);
#114=EDGE_CURVE('',#131,#130,#44,.T.);
#115=EDGE_CURVE('',#132,#131,#45,.T.);
#116=EDGE_CURVE('',#132,#129,#46,.T.);
#117=EDGE_CURVE('',#130,#133,#47,.T.);
#118=EDGE_CURVE('',#134,#133,#48,.T.);
#119=EDGE_CURVE('',#131,#134,#49,.T.);
#120=EDGE_CURVE('',#133,#135,#50,.T.);
#121=EDGE_CURVE('',#136,#135,#51,.T.);
#122=EDGE_CURVE('',#134,#136,#52,.T.);
#123=EDGE_CURVE('',#135,#129,#53,.T.);
#124=EDGE_CURVE('',#136,#132,#54,.T.);
#125=VERTEX_POINT('',#282);
#126=VERTEX_POINT('',#283);
#127=VERTEX_POINT('',#285);
#128=VERTEX_POINT('',#287);
#129=VERTEX_POINT('',#297);
#130=VERTEX_POINT('',#298);
#131=VERTEX_POINT('',#300);
#132=VERTEX_POINT('',#302);
#133=VERTEX_POINT('',#306);
#134=VERTEX_POINT('',#308);
#135=VERTEX_POINT('',#312);
#136=VERTEX_POINT('',#314);
#137=CIRCLE('',#220,2.03846153846154);
#138=CIRCLE('',#221,2.03846153846154);
#139=EDGE_LOOP('',(#71,#72,#73,#74));
#140=EDGE_LOOP('',(#75,#76,#77,#78));
#141=EDGE_LOOP('',(#79,#80));
#142=EDGE_LOOP('',(#81,#82));
#143=EDGE_LOOP('',(#83,#84,#85,#86));
#144=EDGE_LOOP('',(#87,#88,#89,#90));
#145=EDGE_LOOP('',(#91,#92,#93,#94));
#146=EDGE_LOOP('',(#95,#96,#97,#98));
#147=EDGE_LOOP('',(#99,#100,#101,#102));
#148=EDGE_LOOP('',(#103,#104,#105,#106));
#149=FACE_BOUND('',#139,.T.);
#150=FACE_BOUND('',#140,.T.);
#151=FACE_BOUND('',#141,.T.);
#152=FACE_BOUND('',#142,.T.);
#153=FACE_BOUND('',#143,.T.);
#154=FACE_BOUND('',#144,.T.);
#155=FACE_BOUND('',#145,.T.);
#156=FACE_BOUND('',#146,.T.);
#157=FACE_BOUND('',#147,.T.);
#158=FACE_BOUND('',#148,.T.);
#159=CYLINDRICAL_SURFACE('',#219,2.03846153846154);
#160=STYLED_ITEM('',(#165),#198);
#161=STYLED_ITEM('',(#166),#199);
#162=STYLED_ITEM('',(#167),#200);
#163=STYLED_ITEM('',(#168),#201);
#164=STYLED_ITEM('',(#169),#211);
#165=PRESENTATION_STYLE_ASSIGNMENT((#170));
#166=PRESENTATION_STYLE_ASSIGNMENT((#171));
#167=PRESENTATION_STYLE_ASSIGNMENT((#172));
#168=PRESENTATION_STYLE_ASSIGNMENT((#173));
#169=PRESENTATION_STYLE_ASSIGNMENT((#174));
#170=SURFACE_STYLE_USAGE(.BOTH.,#175);
#171=SURFACE_STYLE_USAGE(.BOTH.,#176);
#172=SURFACE_STYLE_USAGE(.BOTH.,#177);
#173=SURFACE_STYLE_USAGE(.BOTH.,#178);
#174=SURFACE_STYLE_USAGE(.BOTH.,#179);
#175=SURFACE_SIDE_STYLE('',(#180));
#176=SURFACE_SIDE_STYLE('',(#181));
#177=SURFACE_SIDE_STYLE('',(#182));
#178=SURFACE_SIDE_STYLE('',(#183));
#179=SURFACE_SIDE_STYLE('',(#184));
#180=SURFACE_STYLE_FILL_AREA(#185);
#181=SURFACE_STYLE_FILL_AREA(#186);
#182=SURFACE_STYLE_FILL_AREA(#187);
#183=SURFACE_STYLE_FILL_AREA(#188);
#184=SURFACE_STYLE_FILL_AREA(#189);
#185=FILL_AREA_STYLE('',(#190));
#186=FILL_AREA_STYLE('',(#191));
#187=FILL_AREA_STYLE('',(#192));
#188=FILL_AREA_STYLE('',(#193));
#189=FILL_AREA_STYLE('',(#194));
#190=FILL_AREA_STYLE_COLOUR('',#195);
#191=FILL_AREA_STYLE_COLOUR('',#195);
#192=FILL_AREA_STYLE_COLOUR('',#196);
#193=FILL_AREA_STYLE_COLOUR('',#196);
#194=FILL_AREA_STYLE_COLOUR('',#197);
#195=COLOUR_RGB('',0.75,0.69539999961853,0.555000007152557);
#196=COLOUR_RGB('',0.200000002980232,0.200000002980232,0.200000002980232);
#197=COLOUR_RGB('',0.506983280181885,0.531564235687256,0.550000011920929);
#198=ADVANCED_FACE('',(#149),#159,.T.);
#199=ADVANCED_FACE('',(#150),#30,.T.);
#200=ADVANCED_FACE('',(#151),#31,.F.);
#201=ADVANCED_FACE('',(#152),#32,.T.);
#202=ADVANCED_FACE('',(#153),#33,.F.);
#203=ADVANCED_FACE('',(#154),#34,.F.);
#204=ADVANCED_FACE('',(#155),#35,.F.);
#205=ADVANCED_FACE('',(#156),#36,.F.);
#206=ADVANCED_FACE('',(#157),#37,.T.);
#207=ADVANCED_FACE('',(#158),#38,.F.);
#208=CLOSED_SHELL('',(#198,#199,#200,#201));
#209=CLOSED_SHELL('',(#202,#203,#204,#205,#206,#207));
#210=MANIFOLD_SOLID_BREP('',#208);
#211=MANIFOLD_SOLID_BREP('',#209);
#212=SHAPE_DEFINITION_REPRESENTATION(#333,#215);
#213=SHAPE_DEFINITION_REPRESENTATION(#332,#216);
#214=SHAPE_DEFINITION_REPRESENTATION(#335,#217);
#215=SHAPE_REPRESENTATION('D-Profil',(#218),#324);
#216=SHAPE_REPRESENTATION('30303801599',(#218,#225,#232),#323);
#217=SHAPE_REPRESENTATION('Adhesive Tape',(#218),#325);
#218=AXIS2_PLACEMENT_3D('',#279,#233,#234);
#219=AXIS2_PLACEMENT_3D('',#280,#235,#236);
#220=AXIS2_PLACEMENT_3D('',#281,#237,#238);
#221=AXIS2_PLACEMENT_3D('',#286,#240,#241);
#222=AXIS2_PLACEMENT_3D('',#289,#243,#244);
#223=AXIS2_PLACEMENT_3D('',#292,#247,#248);
#224=AXIS2_PLACEMENT_3D('',#293,#249,#250);
#225=AXIS2_PLACEMENT_3D('',#294,#251,#252);
#226=AXIS2_PLACEMENT_3D('',#295,#253,#254);
#227=AXIS2_PLACEMENT_3D('',#304,#259,#260);
#228=AXIS2_PLACEMENT_3D('',#310,#264,#265);
#229=AXIS2_PLACEMENT_3D('',#316,#269,#270);
#230=AXIS2_PLACEMENT_3D('',#319,#273,#274);
#231=AXIS2_PLACEMENT_3D('',#320,#275,#276);
#232=AXIS2_PLACEMENT_3D('',#321,#277,#278);
#233=DIRECTION('',(0.,0.,1.));
#234=DIRECTION('',(1.,0.,0.));
#235=DIRECTION('',(0.,1.,0.));
#236=DIRECTION('',(0.,0.,1.));
#237=DIRECTION('',(0.,1.,0.));
#238=DIRECTION('',(1.,0.,0.));
#239=DIRECTION('',(0.,1.,0.));
#240=DIRECTION('',(0.,1.,0.));
#241=DIRECTION('',(1.,0.,0.));
#242=DIRECTION('',(0.,1.,0.));
#243=DIRECTION('',(0.,0.,-1.));
#244=DIRECTION('',(-1.,0.,0.));
#245=DIRECTION('',(-1.,0.,0.));
#246=DIRECTION('',(-1.,0.,0.));
#247=DIRECTION('',(0.,1.,0.));
#248=DIRECTION('',(0.,0.,1.));
#249=DIRECTION('',(0.,1.,0.));
#250=DIRECTION('',(0.,0.,1.));
#251=DIRECTION('',(0.,0.,1.));
#252=DIRECTION('',(1.,0.,0.));
#253=DIRECTION('',(1.,2.4459601011273E-16,0.));
#254=DIRECTION('',(-2.4459601011273E-16,1.,0.));
#255=DIRECTION('',(2.4459601011273E-16,-1.,0.));
#256=DIRECTION('',(0.,0.,-1.));
#257=DIRECTION('',(2.4459601011273E-16,-1.,0.));
#258=DIRECTION('',(0.,0.,-1.));
#259=DIRECTION('',(0.,1.,0.));
#260=DIRECTION('',(0.,0.,1.));
#261=DIRECTION('',(1.,0.,0.));
#262=DIRECTION('',(0.,0.,-1.));
#263=DIRECTION('',(1.,0.,0.));
#264=DIRECTION('',(-1.,0.,0.));
#265=DIRECTION('',(0.,0.,1.));
#266=DIRECTION('',(0.,1.,0.));
#267=DIRECTION('',(0.,0.,-1.));
#268=DIRECTION('',(0.,1.,0.));
#269=DIRECTION('',(0.,-1.,0.));
#270=DIRECTION('',(0.,0.,-1.));
#271=DIRECTION('',(-1.,0.,0.));
#272=DIRECTION('',(-1.,0.,0.));
#273=DIRECTION('',(0.,0.,1.));
#274=DIRECTION('',(1.,0.,0.));
#275=DIRECTION('',(0.,0.,1.));
#276=DIRECTION('',(1.,0.,0.));
#277=DIRECTION('',(0.,0.,1.));
#278=DIRECTION('',(1.,0.,0.));
#279=CARTESIAN_POINT('',(0.,0.,0.));
#280=CARTESIAN_POINT('',(-3.68628738645072E-15,-500.,-1.38846153846154));
#281=CARTESIAN_POINT('',(-3.68628738645072E-15,500.,-1.38846153846154));
#282=CARTESIAN_POINT('',(-1.9,500.,-0.65));
#283=CARTESIAN_POINT('',(1.9,500.,-0.65));
#284=CARTESIAN_POINT('',(-1.9,-500.,-0.65));
#285=CARTESIAN_POINT('',(-1.9,-500.,-0.65));
#286=CARTESIAN_POINT('',(-3.68628738645072E-15,-500.,-1.38846153846154));
#287=CARTESIAN_POINT('',(1.9,-500.,-0.65));
#288=CARTESIAN_POINT('',(1.9,-500.,-0.65));
#289=CARTESIAN_POINT('',(1.9,-500.,-0.65));
#290=CARTESIAN_POINT('',(1.9,500.,-0.65));
#291=CARTESIAN_POINT('',(1.9,-500.,-0.65));
#292=CARTESIAN_POINT('',(-3.68628738645072E-15,-500.,-1.38846153846154));
#293=CARTESIAN_POINT('',(-3.68628738645072E-15,500.,-1.38846153846154));
#294=CARTESIAN_POINT('',(0.,0.,0.));
#295=CARTESIAN_POINT('',(-1.00000000000012,500.,0.1));
#296=CARTESIAN_POINT('',(-1.00000000000012,500.,-0.1));
#297=CARTESIAN_POINT('',(-1.00000000000012,500.,-0.1));
#298=CARTESIAN_POINT('',(-0.999999999999878,-500.,-0.1));
#299=CARTESIAN_POINT('',(-0.999999999999878,-500.,0.1));
#300=CARTESIAN_POINT('',(-0.999999999999878,-500.,0.1));
#301=CARTESIAN_POINT('',(-1.00000000000012,500.,0.1));
#302=CARTESIAN_POINT('',(-1.00000000000012,500.,0.1));
#303=CARTESIAN_POINT('',(-1.00000000000012,500.,0.1));
#304=CARTESIAN_POINT('',(-0.999999999999878,-500.,0.1));
#305=CARTESIAN_POINT('',(-0.999999999999878,-500.,-0.1));
#306=CARTESIAN_POINT('',(1.,-500.,-0.1));
#307=CARTESIAN_POINT('',(1.,-500.,0.1));
#308=CARTESIAN_POINT('',(1.,-500.,0.1));
#309=CARTESIAN_POINT('',(-0.999999999999878,-500.,0.1));
#310=CARTESIAN_POINT('',(1.,-500.,0.1));
#311=CARTESIAN_POINT('',(1.,-500.,-0.1));
#312=CARTESIAN_POINT('',(1.,500.,-0.1));
#313=CARTESIAN_POINT('',(1.,500.,0.1));
#314=CARTESIAN_POINT('',(1.,500.,0.1));
#315=CARTESIAN_POINT('',(1.,-500.,0.1));
#316=CARTESIAN_POINT('',(1.,500.,0.1));
#317=CARTESIAN_POINT('',(1.,500.,-0.1));
#318=CARTESIAN_POINT('',(1.,500.,0.1));
#319=CARTESIAN_POINT('',(0.,0.,0.1));
#320=CARTESIAN_POINT('',(0.,0.,-0.1));
#321=CARTESIAN_POINT('',(0.00224012790045382,2.77555756156289E-14,-0.75));
#322=MECHANICAL_DESIGN_GEOMETRIC_PRESENTATION_REPRESENTATION('',(#160,#161,
#162,#163,#164),#323);
#323=(
GEOMETRIC_REPRESENTATION_CONTEXT(3)
GLOBAL_UNCERTAINTY_ASSIGNED_CONTEXT((#326))
GLOBAL_UNIT_ASSIGNED_CONTEXT((#331,#330,#329))
REPRESENTATION_CONTEXT('30303801599','TOP_LEVEL_ASSEMBLY_PART')
);
#324=(
GEOMETRIC_REPRESENTATION_CONTEXT(3)
GLOBAL_UNCERTAINTY_ASSIGNED_CONTEXT((#327))
GLOBAL_UNIT_ASSIGNED_CONTEXT((#331,#330,#329))
REPRESENTATION_CONTEXT('D-Profil','COMPONENT_PART')
);
#325=(
GEOMETRIC_REPRESENTATION_CONTEXT(3)
GLOBAL_UNCERTAINTY_ASSIGNED_CONTEXT((#328))
GLOBAL_UNIT_ASSIGNED_CONTEXT((#331,#330,#329))
REPRESENTATION_CONTEXT('Adhesive Tape','COMPONENT_PART')
);
#326=UNCERTAINTY_MEASURE_WITH_UNIT(LENGTH_MEASURE(0.005),#331,
'DISTANCE_ACCURACY_VALUE','Maximum Tolerance applied to model');
#327=UNCERTAINTY_MEASURE_WITH_UNIT(LENGTH_MEASURE(0.005),#331,
'DISTANCE_ACCURACY_VALUE','Maximum Tolerance applied to model');
#328=UNCERTAINTY_MEASURE_WITH_UNIT(LENGTH_MEASURE(0.005),#331,
'DISTANCE_ACCURACY_VALUE','Maximum Tolerance applied to model');
#329=(
NAMED_UNIT(*)
SI_UNIT($,.STERADIAN.)
SOLID_ANGLE_UNIT()
);
#330=(
NAMED_UNIT(*)
PLANE_ANGLE_UNIT()
SI_UNIT($,.RADIAN.)
);
#331=(
LENGTH_UNIT()
NAMED_UNIT(*)
SI_UNIT(.MILLI.,.METRE.)
);
#332=PRODUCT_DEFINITION_SHAPE('','',#337);
#333=PRODUCT_DEFINITION_SHAPE('','',#338);
#334=PRODUCT_DEFINITION_SHAPE(' ','NAUO PRDDFN',#20);
#335=PRODUCT_DEFINITION_SHAPE('','',#339);
#336=PRODUCT_DEFINITION_SHAPE(' ','NAUO PRDDFN',#21);
#337=PRODUCT_DEFINITION('','',#343,#340);
#338=PRODUCT_DEFINITION('','',#344,#341);
#339=PRODUCT_DEFINITION('','',#345,#342);
#340=PRODUCT_DEFINITION_CONTEXT('',#359,'design');
#341=PRODUCT_DEFINITION_CONTEXT('',#359,'design');
#342=PRODUCT_DEFINITION_CONTEXT('',#359,'design');
#343=PRODUCT_DEFINITION_FORMATION_WITH_SPECIFIED_SOURCE('','',#349,
 .NOT_KNOWN.);
#344=PRODUCT_DEFINITION_FORMATION_WITH_SPECIFIED_SOURCE('','',#350,
 .NOT_KNOWN.);
#345=PRODUCT_DEFINITION_FORMATION_WITH_SPECIFIED_SOURCE('','',#351,
 .NOT_KNOWN.);
#346=PRODUCT_RELATED_PRODUCT_CATEGORY('','',(#349));
#347=PRODUCT_RELATED_PRODUCT_CATEGORY('','',(#350));
#348=PRODUCT_RELATED_PRODUCT_CATEGORY('','',(#351));
#349=PRODUCT('30303801599','30303801599','30303801599',(#355));
#350=PRODUCT('D-Profil','D-Profil','D-Profil',(#356));
#351=PRODUCT('Adhesive Tape','Adhesive Tape','Adhesive Tape',(#357));
#352=PRODUCT_CATEGORY('','');
#353=PRODUCT_CATEGORY('','');
#354=PRODUCT_CATEGORY('','');
#355=PRODUCT_CONTEXT('',#359,'mechanical');
#356=PRODUCT_CONTEXT('',#359,'mechanical');
#357=PRODUCT_CONTEXT('',#359,'mechanical');
#358=APPLICATION_PROTOCOL_DEFINITION('international standard',
'automotive_design',2010,#359);
#359=APPLICATION_CONTEXT(
'core data for automotive mechanical design processes');
ENDSEC;
END-ISO-10303-21;
