ISO-10303-21;
HEADER;
/* Generated by software containing ST-Developer
 * from STEP Tools, Inc. (www.steptools.com) 
 */
/* OPTION: strings as raw bytes, not using required /X/ escapes */

FILE_DESCRIPTION(
/* description */ ('Unknown'),
/* implementation_level */ '2;1');

FILE_NAME(
/* name */ '9774040151',
/* time_stamp */ '2020-03-26T08:46:32+01:00',
/* author */ ('Unknown'),
/* organization */ ('Unknown'),
/* preprocessor_version */ 'ST-DEVELOPER v16.7',
/* originating_system */ 'DEX',
/* authorisation */ $);

FILE_SCHEMA (('AUTOMOTIVE_DESIGN {1 0 10303 214 3 1 1}'));
ENDSEC;

DATA;
#10=PROPERTY_DEFINITION_REPRESENTATION(#14,#12);
#11=PROPERTY_DEFINITION_REPRESENTATION(#15,#13);
#12=REPRESENTATION('',(#16),#193);
#13=REPRESENTATION('',(#17),#193);
#14=PROPERTY_DEFINITION('pmi validation property','',#198);
#15=PROPERTY_DEFINITION('pmi validation property','',#198);
#16=VALUE_REPRESENTATION_ITEM('number of annotations',COUNT_MEASURE(0.));
#17=VALUE_REPRESENTATION_ITEM('number of views',COUNT_MEASURE(0.));
#18=SHAPE_REPRESENTATION_RELATIONSHIP('','',#133,#19);
#19=ADVANCED_BREP_SHAPE_REPRESENTATION('',(#131),#193);
#20=CYLINDRICAL_SURFACE('',#138,1.75);
#21=CYLINDRICAL_SURFACE('',#142,2.55);
#22=CYLINDRICAL_SURFACE('',#146,1.0065);
#23=ORIENTED_EDGE('',*,*,#35,.F.);
#24=ORIENTED_EDGE('',*,*,#36,.T.);
#25=ORIENTED_EDGE('',*,*,#37,.T.);
#26=ORIENTED_EDGE('',*,*,#36,.F.);
#27=ORIENTED_EDGE('',*,*,#38,.T.);
#28=ORIENTED_EDGE('',*,*,#37,.F.);
#29=ORIENTED_EDGE('',*,*,#39,.T.);
#30=ORIENTED_EDGE('',*,*,#38,.F.);
#31=ORIENTED_EDGE('',*,*,#40,.F.);
#32=ORIENTED_EDGE('',*,*,#39,.F.);
#33=ORIENTED_EDGE('',*,*,#40,.T.);
#34=ORIENTED_EDGE('',*,*,#35,.T.);
#35=EDGE_CURVE('',#41,#41,#47,.T.);
#36=EDGE_CURVE('',#42,#42,#48,.T.);
#37=EDGE_CURVE('',#43,#43,#49,.T.);
#38=EDGE_CURVE('',#44,#44,#50,.T.);
#39=EDGE_CURVE('',#45,#45,#51,.T.);
#40=EDGE_CURVE('',#46,#46,#52,.T.);
#41=VERTEX_POINT('',#176);
#42=VERTEX_POINT('',#178);
#43=VERTEX_POINT('',#181);
#44=VERTEX_POINT('',#184);
#45=VERTEX_POINT('',#187);
#46=VERTEX_POINT('',#190);
#47=CIRCLE('',#136,1.0065);
#48=CIRCLE('',#137,1.75);
#49=CIRCLE('',#139,1.75);
#50=CIRCLE('',#141,2.55);
#51=CIRCLE('',#143,2.55);
#52=CIRCLE('',#145,1.0065);
#53=EDGE_LOOP('',(#23));
#54=EDGE_LOOP('',(#24));
#55=EDGE_LOOP('',(#25));
#56=EDGE_LOOP('',(#26));
#57=EDGE_LOOP('',(#27));
#58=EDGE_LOOP('',(#28));
#59=EDGE_LOOP('',(#29));
#60=EDGE_LOOP('',(#30));
#61=EDGE_LOOP('',(#31));
#62=EDGE_LOOP('',(#32));
#63=EDGE_LOOP('',(#33));
#64=EDGE_LOOP('',(#34));
#65=FACE_BOUND('',#53,.T.);
#66=FACE_BOUND('',#54,.T.);
#67=FACE_BOUND('',#55,.T.);
#68=FACE_BOUND('',#56,.T.);
#69=FACE_BOUND('',#57,.T.);
#70=FACE_BOUND('',#58,.T.);
#71=FACE_BOUND('',#59,.T.);
#72=FACE_BOUND('',#60,.T.);
#73=FACE_BOUND('',#61,.T.);
#74=FACE_BOUND('',#62,.T.);
#75=FACE_BOUND('',#63,.T.);
#76=FACE_BOUND('',#64,.T.);
#77=PLANE('',#135);
#78=PLANE('',#140);
#79=PLANE('',#144);
#80=STYLED_ITEM('',(#86),#124);
#81=STYLED_ITEM('',(#87),#125);
#82=STYLED_ITEM('',(#88),#126);
#83=STYLED_ITEM('',(#89),#127);
#84=STYLED_ITEM('',(#90),#128);
#85=STYLED_ITEM('',(#91),#129);
#86=PRESENTATION_STYLE_ASSIGNMENT((#92));
#87=PRESENTATION_STYLE_ASSIGNMENT((#93));
#88=PRESENTATION_STYLE_ASSIGNMENT((#94));
#89=PRESENTATION_STYLE_ASSIGNMENT((#95));
#90=PRESENTATION_STYLE_ASSIGNMENT((#96));
#91=PRESENTATION_STYLE_ASSIGNMENT((#97));
#92=SURFACE_STYLE_USAGE(.BOTH.,#98);
#93=SURFACE_STYLE_USAGE(.BOTH.,#99);
#94=SURFACE_STYLE_USAGE(.BOTH.,#100);
#95=SURFACE_STYLE_USAGE(.BOTH.,#101);
#96=SURFACE_STYLE_USAGE(.BOTH.,#102);
#97=SURFACE_STYLE_USAGE(.BOTH.,#103);
#98=SURFACE_SIDE_STYLE('',(#104));
#99=SURFACE_SIDE_STYLE('',(#105));
#100=SURFACE_SIDE_STYLE('',(#106));
#101=SURFACE_SIDE_STYLE('',(#107));
#102=SURFACE_SIDE_STYLE('',(#108));
#103=SURFACE_SIDE_STYLE('',(#109));
#104=SURFACE_STYLE_FILL_AREA(#110);
#105=SURFACE_STYLE_FILL_AREA(#111);
#106=SURFACE_STYLE_FILL_AREA(#112);
#107=SURFACE_STYLE_FILL_AREA(#113);
#108=SURFACE_STYLE_FILL_AREA(#114);
#109=SURFACE_STYLE_FILL_AREA(#115);
#110=FILL_AREA_STYLE('',(#116));
#111=FILL_AREA_STYLE('',(#117));
#112=FILL_AREA_STYLE('',(#118));
#113=FILL_AREA_STYLE('',(#119));
#114=FILL_AREA_STYLE('',(#120));
#115=FILL_AREA_STYLE('',(#121));
#116=FILL_AREA_STYLE_COLOUR('',#122);
#117=FILL_AREA_STYLE_COLOUR('',#122);
#118=FILL_AREA_STYLE_COLOUR('',#122);
#119=FILL_AREA_STYLE_COLOUR('',#122);
#120=FILL_AREA_STYLE_COLOUR('',#122);
#121=FILL_AREA_STYLE_COLOUR('',#123);
#122=COLOUR_RGB('',0.645180702209473,0.678915679454803,0.699999988079071);
#123=COLOUR_RGB('',0.1875,0.75,0.581249892711639);
#124=ADVANCED_FACE('',(#65,#66),#77,.T.);
#125=ADVANCED_FACE('',(#67,#68),#20,.T.);
#126=ADVANCED_FACE('',(#69,#70),#78,.T.);
#127=ADVANCED_FACE('',(#71,#72),#21,.T.);
#128=ADVANCED_FACE('',(#73,#74),#79,.T.);
#129=ADVANCED_FACE('',(#75,#76),#22,.F.);
#130=CLOSED_SHELL('',(#124,#125,#126,#127,#128,#129));
#131=MANIFOLD_SOLID_BREP('',#130);
#132=SHAPE_DEFINITION_REPRESENTATION(#198,#133);
#133=SHAPE_REPRESENTATION('9774040151',(#134),#193);
#134=AXIS2_PLACEMENT_3D('',#173,#147,#148);
#135=AXIS2_PLACEMENT_3D('',#174,#149,#150);
#136=AXIS2_PLACEMENT_3D('',#175,#151,#152);
#137=AXIS2_PLACEMENT_3D('',#177,#153,#154);
#138=AXIS2_PLACEMENT_3D('',#179,#155,#156);
#139=AXIS2_PLACEMENT_3D('',#180,#157,#158);
#140=AXIS2_PLACEMENT_3D('',#182,#159,#160);
#141=AXIS2_PLACEMENT_3D('',#183,#161,#162);
#142=AXIS2_PLACEMENT_3D('',#185,#163,#164);
#143=AXIS2_PLACEMENT_3D('',#186,#165,#166);
#144=AXIS2_PLACEMENT_3D('',#188,#167,#168);
#145=AXIS2_PLACEMENT_3D('',#189,#169,#170);
#146=AXIS2_PLACEMENT_3D('',#191,#171,#172);
#147=DIRECTION('',(0.,0.,1.));
#148=DIRECTION('',(1.,0.,0.));
#149=DIRECTION('',(-2.3977525989811E-16,0.,-1.));
#150=DIRECTION('',(-1.,0.,2.3977525989811E-16));
#151=DIRECTION('',(-2.3977525989811E-16,0.,-1.));
#152=DIRECTION('',(-1.,0.,2.3977525989811E-16));
#153=DIRECTION('',(-2.3977525989811E-16,0.,-1.));
#154=DIRECTION('',(-1.,0.,2.3977525989811E-16));
#155=DIRECTION('',(-2.3977525989811E-16,0.,-1.));
#156=DIRECTION('',(-1.,0.,2.3977525989811E-16));
#157=DIRECTION('',(-2.3977525989811E-16,0.,-1.));
#158=DIRECTION('',(-1.,0.,2.3977525989811E-16));
#159=DIRECTION('',(-2.3977525989811E-16,0.,-1.));
#160=DIRECTION('',(-1.,0.,2.3977525989811E-16));
#161=DIRECTION('',(-2.3977525989811E-16,0.,-1.));
#162=DIRECTION('',(-1.,0.,2.3977525989811E-16));
#163=DIRECTION('',(-2.3977525989811E-16,0.,-1.));
#164=DIRECTION('',(-1.,0.,2.3977525989811E-16));
#165=DIRECTION('',(-2.3977525989811E-16,0.,-1.));
#166=DIRECTION('',(-1.,0.,2.3977525989811E-16));
#167=DIRECTION('',(2.3977525989811E-16,0.,1.));
#168=DIRECTION('',(1.,0.,-2.3977525989811E-16));
#169=DIRECTION('',(1.70070929017331E-16,0.,1.));
#170=DIRECTION('',(1.,0.,-1.70070929017331E-16));
#171=DIRECTION('',(2.3977525989811E-16,0.,1.));
#172=DIRECTION('',(1.,0.,-2.3977525989811E-16));
#173=CARTESIAN_POINT('',(0.,0.,0.));
#174=CARTESIAN_POINT('',(4.00321331481491E-16,0.,-1.4));
#175=CARTESIAN_POINT('',(-4.6873447240142E-16,0.,-1.4));
#176=CARTESIAN_POINT('',(-1.0065,0.,-1.4));
#177=CARTESIAN_POINT('',(1.15926285222134E-15,0.,-1.4));
#178=CARTESIAN_POINT('',(-1.75,0.,-1.4));
#179=CARTESIAN_POINT('',(1.73472347597681E-15,0.,1.));
#180=CARTESIAN_POINT('',(1.4949482160787E-15,0.,-4.33680868994202E-16));
#181=CARTESIAN_POINT('',(-1.75,0.,-1.40741641725095E-17));
#182=CARTESIAN_POINT('',(-1.75,0.,-1.20635097187282E-16));
#183=CARTESIAN_POINT('',(1.4949482160787E-15,0.,-6.50521303491303E-16));
#184=CARTESIAN_POINT('',(-2.55,0.,-3.90943907511227E-17));
#185=CARTESIAN_POINT('',(1.73472347597681E-15,0.,1.));
#186=CARTESIAN_POINT('',(2.57393688562019E-15,0.,4.5));
#187=CARTESIAN_POINT('',(-2.55,0.,4.5));
#188=CARTESIAN_POINT('',(-2.55,0.,4.5));
#189=CARTESIAN_POINT('',(9.45939560997426E-16,0.,4.5));
#190=CARTESIAN_POINT('',(1.0065,0.,4.5));
#191=CARTESIAN_POINT('',(-1.28834904564158E-15,0.,-4.81826164045634));
#192=MECHANICAL_DESIGN_GEOMETRIC_PRESENTATION_REPRESENTATION('',(#80,#81,
#82,#83,#84,#85),#193);
#193=(
GEOMETRIC_REPRESENTATION_CONTEXT(3)
GLOBAL_UNCERTAINTY_ASSIGNED_CONTEXT((#194))
GLOBAL_UNIT_ASSIGNED_CONTEXT((#197,#196,#195))
REPRESENTATION_CONTEXT('9774040151','TOP_LEVEL_ASSEMBLY_PART')
);
#194=UNCERTAINTY_MEASURE_WITH_UNIT(LENGTH_MEASURE(0.005),#197,
'DISTANCE_ACCURACY_VALUE','Maximum Tolerance applied to model');
#195=(
NAMED_UNIT(*)
SI_UNIT($,.STERADIAN.)
SOLID_ANGLE_UNIT()
);
#196=(
NAMED_UNIT(*)
PLANE_ANGLE_UNIT()
SI_UNIT($,.RADIAN.)
);
#197=(
LENGTH_UNIT()
NAMED_UNIT(*)
SI_UNIT(.MILLI.,.METRE.)
);
#198=PRODUCT_DEFINITION_SHAPE('','',#199);
#199=PRODUCT_DEFINITION('','',#201,#200);
#200=PRODUCT_DEFINITION_CONTEXT('',#207,'design');
#201=PRODUCT_DEFINITION_FORMATION_WITH_SPECIFIED_SOURCE('','',#203,
 .NOT_KNOWN.);
#202=PRODUCT_RELATED_PRODUCT_CATEGORY('','',(#203));
#203=PRODUCT('9774040151','9774040151','9774040151',(#205));
#204=PRODUCT_CATEGORY('','');
#205=PRODUCT_CONTEXT('',#207,'mechanical');
#206=APPLICATION_PROTOCOL_DEFINITION('international standard',
'automotive_design',2010,#207);
#207=APPLICATION_CONTEXT(
'core data for automotive mechanical design processes');
ENDSEC;
END-ISO-10303-21;
