ISO-10303-21;
HEADER;
FILE_DESCRIPTION( ( 'Unknown' ), '1' );
FILE_NAME( '//s-e-file01.we-group.com/data/User_Groups_Only/17_EMC_Product_&_Development/Article_Master/eiCan/Assembly/As_SMRA/Master_Data/01_CAD_drawing/1_Drawing/746630x/74663025/Released_Data/74663025.stp', 'Unknown', ( 'Unknown' ), ( 'Unknown' ), 'PSStep 19.0.9', 'Unknown', '  ' );
FILE_SCHEMA( ( 'AUTOMOTIVE_DESIGN { 1 0 10303 214 1 1 1 1 }' ) );
ENDSEC;
DATA;
#1 = MECHANICAL_DESIGN_GEOMETRIC_PRESENTATION_REPRESENTATION( ' ', ( #10, #11, #12, #13, #14, #15, #16, #17, #18, #19, #20, #21, #22 ), #6 );
#2 = PRODUCT_DEFINITION_CONTEXT( '', #23, 'design' );
#3 = APPLICATION_PROTOCOL_DEFINITION( 'international standard', 'automotive_design', 2001, #23 );
#4 = PRODUCT_CATEGORY_RELATIONSHIP( 'NONE', 'NONE', #24, #25 );
#5 = SHAPE_DEFINITION_REPRESENTATION( #26, #27 );
#6 =  ( GEOMETRIC_REPRESENTATION_CONTEXT( 3 )GLOBAL_UNCERTAINTY_ASSIGNED_CONTEXT( ( #30 ) )GLOBAL_UNIT_ASSIGNED_CONTEXT( ( #32, #33, #34 ) )REPRESENTATION_CONTEXT( 'NONE', 'WORKSPACE' ) );
#10 = STYLED_ITEM( '', ( #36 ), #37 );
#11 = STYLED_ITEM( '', ( #38 ), #39 );
#12 = STYLED_ITEM( '', ( #40 ), #41 );
#13 = STYLED_ITEM( '', ( #42 ), #43 );
#14 = STYLED_ITEM( '', ( #44 ), #45 );
#15 = STYLED_ITEM( '', ( #46 ), #47 );
#16 = STYLED_ITEM( '', ( #48 ), #49 );
#17 = STYLED_ITEM( '', ( #50 ), #51 );
#18 = STYLED_ITEM( '', ( #52 ), #53 );
#19 = STYLED_ITEM( '', ( #54 ), #55 );
#20 = STYLED_ITEM( '', ( #56 ), #57 );
#21 = STYLED_ITEM( '', ( #58 ), #59 );
#22 = STYLED_ITEM( '', ( #60 ), #61 );
#23 = APPLICATION_CONTEXT( 'core data for automotive mechanical design processes' );
#24 = PRODUCT_CATEGORY( 'part', 'NONE' );
#25 = PRODUCT_RELATED_PRODUCT_CATEGORY( 'detail', ' ', ( #62 ) );
#26 = PRODUCT_DEFINITION_SHAPE( 'NONE', 'NONE', #63 );
#27 = ADVANCED_BREP_SHAPE_REPRESENTATION( '1', ( #64, #65 ), #6 );
#30 = UNCERTAINTY_MEASURE_WITH_UNIT( LENGTH_MEASURE( 0.00100000000000000 ), #32, '', '' );
#32 =  ( CONVERSION_BASED_UNIT( 'MILLIMETRE', #68 )LENGTH_UNIT(  )NAMED_UNIT( #71 ) );
#33 =  ( NAMED_UNIT( #73 )PLANE_ANGLE_UNIT(  )SI_UNIT( $, .RADIAN. ) );
#34 =  ( NAMED_UNIT( #73 )SI_UNIT( $, .STERADIAN. )SOLID_ANGLE_UNIT(  ) );
#36 = PRESENTATION_STYLE_ASSIGNMENT( ( #79 ) );
#37 = ADVANCED_FACE( '', ( #80 ), #81, .F. );
#38 = PRESENTATION_STYLE_ASSIGNMENT( ( #82 ) );
#39 = ADVANCED_FACE( '', ( #83 ), #84, .F. );
#40 = PRESENTATION_STYLE_ASSIGNMENT( ( #85 ) );
#41 = ADVANCED_FACE( '', ( #86, #87 ), #88, .F. );
#42 = PRESENTATION_STYLE_ASSIGNMENT( ( #89 ) );
#43 = ADVANCED_FACE( '', ( #90 ), #91, .T. );
#44 = PRESENTATION_STYLE_ASSIGNMENT( ( #92 ) );
#45 = ADVANCED_FACE( '', ( #93, #94 ), #95, .F. );
#46 = PRESENTATION_STYLE_ASSIGNMENT( ( #96 ) );
#47 = ADVANCED_FACE( '', ( #97, #98 ), #99, .T. );
#48 = PRESENTATION_STYLE_ASSIGNMENT( ( #100 ) );
#49 = ADVANCED_FACE( '', ( #101, #102 ), #103, .F. );
#50 = PRESENTATION_STYLE_ASSIGNMENT( ( #104 ) );
#51 = ADVANCED_FACE( '', ( #105 ), #106, .T. );
#52 = PRESENTATION_STYLE_ASSIGNMENT( ( #107 ) );
#53 = ADVANCED_FACE( '', ( #108 ), #109, .T. );
#54 = PRESENTATION_STYLE_ASSIGNMENT( ( #110 ) );
#55 = ADVANCED_FACE( '', ( #111 ), #112, .T. );
#56 = PRESENTATION_STYLE_ASSIGNMENT( ( #113 ) );
#57 = ADVANCED_FACE( '', ( #114, #115 ), #116, .F. );
#58 = PRESENTATION_STYLE_ASSIGNMENT( ( #117 ) );
#59 = ADVANCED_FACE( '', ( #118 ), #119, .T. );
#60 = PRESENTATION_STYLE_ASSIGNMENT( ( #120 ) );
#61 = ADVANCED_FACE( '', ( #121 ), #122, .T. );
#62 = PRODUCT( '1', '1', 'PART-1-DESC', ( #123 ) );
#63 = PRODUCT_DEFINITION( 'NONE', 'NONE', #124, #2 );
#64 = MANIFOLD_SOLID_BREP( '1', #125 );
#65 = AXIS2_PLACEMENT_3D( '', #126, #127, #128 );
#68 = LENGTH_MEASURE_WITH_UNIT( LENGTH_MEASURE( 1.00000000000000 ), #129 );
#71 = DIMENSIONAL_EXPONENTS( 1.00000000000000, 0.000000000000000, 0.000000000000000, 0.000000000000000, 0.000000000000000, 0.000000000000000, 0.000000000000000 );
#73 = DIMENSIONAL_EXPONENTS( 0.000000000000000, 0.000000000000000, 0.000000000000000, 0.000000000000000, 0.000000000000000, 0.000000000000000, 0.000000000000000 );
#79 = SURFACE_STYLE_USAGE( .BOTH., #130 );
#80 = FACE_OUTER_BOUND( '', #131, .T. );
#81 = CYLINDRICAL_SURFACE( '', #132, 50.0000000000000 );
#82 = SURFACE_STYLE_USAGE( .BOTH., #133 );
#83 = FACE_OUTER_BOUND( '', #134, .T. );
#84 = CYLINDRICAL_SURFACE( '', #135, 50.0000000000000 );
#85 = SURFACE_STYLE_USAGE( .BOTH., #136 );
#86 = FACE_BOUND( '', #137, .T. );
#87 = FACE_OUTER_BOUND( '', #138, .T. );
#88 = CONICAL_SURFACE( '', #139, 1.35650000000000, 0.785398163400000 );
#89 = SURFACE_STYLE_USAGE( .BOTH., #140 );
#90 = FACE_OUTER_BOUND( '', #141, .T. );
#91 = PLANE( '', #142 );
#92 = SURFACE_STYLE_USAGE( .BOTH., #143 );
#93 = FACE_OUTER_BOUND( '', #144, .T. );
#94 = FACE_OUTER_BOUND( '', #145, .T. );
#95 = CYLINDRICAL_SURFACE( '', #146, 1.00650000000000 );
#96 = SURFACE_STYLE_USAGE( .BOTH., #147 );
#97 = FACE_OUTER_BOUND( '', #148, .T. );
#98 = FACE_BOUND( '', #149, .T. );
#99 = PLANE( '', #150 );
#100 = SURFACE_STYLE_USAGE( .BOTH., #151 );
#101 = FACE_BOUND( '', #152, .T. );
#102 = FACE_OUTER_BOUND( '', #153, .T. );
#103 = PLANE( '', #154 );
#104 = SURFACE_STYLE_USAGE( .BOTH., #155 );
#105 = FACE_OUTER_BOUND( '', #156, .T. );
#106 = PLANE( '', #157 );
#107 = SURFACE_STYLE_USAGE( .BOTH., #158 );
#108 = FACE_OUTER_BOUND( '', #159, .T. );
#109 = PLANE( '', #160 );
#110 = SURFACE_STYLE_USAGE( .BOTH., #161 );
#111 = FACE_OUTER_BOUND( '', #162, .T. );
#112 = PLANE( '', #163 );
#113 = SURFACE_STYLE_USAGE( .BOTH., #164 );
#114 = FACE_BOUND( '', #165, .T. );
#115 = FACE_OUTER_BOUND( '', #166, .T. );
#116 = CONICAL_SURFACE( '', #167, 1.35650000000000, 0.785398163400000 );
#117 = SURFACE_STYLE_USAGE( .BOTH., #168 );
#118 = FACE_OUTER_BOUND( '', #169, .T. );
#119 = PLANE( '', #170 );
#120 = SURFACE_STYLE_USAGE( .BOTH., #171 );
#121 = FACE_OUTER_BOUND( '', #172, .T. );
#122 = PLANE( '', #173 );
#123 = PRODUCT_CONTEXT( '', #23, 'mechanical' );
#124 = PRODUCT_DEFINITION_FORMATION_WITH_SPECIFIED_SOURCE( ' ', 'NONE', #62, .NOT_KNOWN. );
#125 = CLOSED_SHELL( '', ( #61, #37, #39, #51, #43, #53, #55, #49, #47, #41, #57, #59, #45 ) );
#126 = CARTESIAN_POINT( '', ( 0.000000000000000, 0.000000000000000, 0.000000000000000 ) );
#127 = DIRECTION( '', ( 0.000000000000000, 0.000000000000000, 1.00000000000000 ) );
#128 = DIRECTION( '', ( 1.00000000000000, 0.000000000000000, 0.000000000000000 ) );
#129 =  ( LENGTH_UNIT(  )NAMED_UNIT( #71 )SI_UNIT( .MILLI., .METRE. ) );
#130 = SURFACE_SIDE_STYLE( '', ( #175 ) );
#131 = EDGE_LOOP( '', ( #176, #177, #178, #179 ) );
#132 = AXIS2_PLACEMENT_3D( '', #180, #181, #182 );
#133 = SURFACE_SIDE_STYLE( '', ( #183 ) );
#134 = EDGE_LOOP( '', ( #184, #185, #186, #187 ) );
#135 = AXIS2_PLACEMENT_3D( '', #188, #189, #190 );
#136 = SURFACE_SIDE_STYLE( '', ( #191 ) );
#137 = EDGE_LOOP( '', ( #192 ) );
#138 = EDGE_LOOP( '', ( #193 ) );
#139 = AXIS2_PLACEMENT_3D( '', #194, #195, #196 );
#140 = SURFACE_SIDE_STYLE( '', ( #197 ) );
#141 = EDGE_LOOP( '', ( #198, #199, #200, #201, #202, #203, #204, #205 ) );
#142 = AXIS2_PLACEMENT_3D( '', #206, #207, #208 );
#143 = SURFACE_SIDE_STYLE( '', ( #209 ) );
#144 = EDGE_LOOP( '', ( #210 ) );
#145 = EDGE_LOOP( '', ( #211 ) );
#146 = AXIS2_PLACEMENT_3D( '', #212, #213, #214 );
#147 = SURFACE_SIDE_STYLE( '', ( #215 ) );
#148 = EDGE_LOOP( '', ( #216, #217, #218, #219 ) );
#149 = EDGE_LOOP( '', ( #220 ) );
#150 = AXIS2_PLACEMENT_3D( '', #221, #222, #223 );
#151 = SURFACE_SIDE_STYLE( '', ( #224 ) );
#152 = EDGE_LOOP( '', ( #225 ) );
#153 = EDGE_LOOP( '', ( #226, #227, #228, #229 ) );
#154 = AXIS2_PLACEMENT_3D( '', #230, #231, #232 );
#155 = SURFACE_SIDE_STYLE( '', ( #233 ) );
#156 = EDGE_LOOP( '', ( #234, #235, #236, #237 ) );
#157 = AXIS2_PLACEMENT_3D( '', #238, #239, #240 );
#158 = SURFACE_SIDE_STYLE( '', ( #241 ) );
#159 = EDGE_LOOP( '', ( #242, #243, #244, #245, #246, #247, #248, #249 ) );
#160 = AXIS2_PLACEMENT_3D( '', #250, #251, #252 );
#161 = SURFACE_SIDE_STYLE( '', ( #253 ) );
#162 = EDGE_LOOP( '', ( #254, #255, #256, #257 ) );
#163 = AXIS2_PLACEMENT_3D( '', #258, #259, #260 );
#164 = SURFACE_SIDE_STYLE( '', ( #261 ) );
#165 = EDGE_LOOP( '', ( #262 ) );
#166 = EDGE_LOOP( '', ( #263 ) );
#167 = AXIS2_PLACEMENT_3D( '', #264, #265, #266 );
#168 = SURFACE_SIDE_STYLE( '', ( #267 ) );
#169 = EDGE_LOOP( '', ( #268, #269, #270, #271 ) );
#170 = AXIS2_PLACEMENT_3D( '', #272, #273, #274 );
#171 = SURFACE_SIDE_STYLE( '', ( #275 ) );
#172 = EDGE_LOOP( '', ( #276, #277, #278, #279 ) );
#173 = AXIS2_PLACEMENT_3D( '', #280, #281, #282 );
#175 = SURFACE_STYLE_FILL_AREA( #283 );
#176 = ORIENTED_EDGE( '', *, *, #284, .T. );
#177 = ORIENTED_EDGE( '', *, *, #285, .F. );
#178 = ORIENTED_EDGE( '', *, *, #286, .F. );
#179 = ORIENTED_EDGE( '', *, *, #287, .T. );
#180 = CARTESIAN_POINT( '', ( 0.000000000000000, 3.00000000000000, 54.4382065582545 ) );
#181 = DIRECTION( '', ( -0.000000000000000, -1.00000000000000, -0.000000000000000 ) );
#182 = DIRECTION( '', ( 0.000000000000000, 0.000000000000000, 1.00000000000000 ) );
#183 = SURFACE_STYLE_FILL_AREA( #288 );
#184 = ORIENTED_EDGE( '', *, *, #289, .T. );
#185 = ORIENTED_EDGE( '', *, *, #290, .F. );
#186 = ORIENTED_EDGE( '', *, *, #291, .F. );
#187 = ORIENTED_EDGE( '', *, *, #292, .T. );
#188 = CARTESIAN_POINT( '', ( 0.000000000000000, -3.00000000000000, 54.4382065582545 ) );
#189 = DIRECTION( '', ( -0.000000000000000, 1.00000000000000, -0.000000000000000 ) );
#190 = DIRECTION( '', ( 0.000000000000000, 0.000000000000000, -1.00000000000000 ) );
#191 = SURFACE_STYLE_FILL_AREA( #293 );
#192 = ORIENTED_EDGE( '', *, *, #294, .F. );
#193 = ORIENTED_EDGE( '', *, *, #295, .F. );
#194 = CARTESIAN_POINT( '', ( 3.64944746145911E-016, -3.50000000000000, 2.00000000000000 ) );
#195 = DIRECTION( '', ( -0.000000000000000, -1.00000000000000, 0.000000000000000 ) );
#196 = DIRECTION( '', ( 1.00000000000000, 0.000000000000000, 0.000000000000000 ) );
#197 = SURFACE_STYLE_FILL_AREA( #296 );
#198 = ORIENTED_EDGE( '', *, *, #287, .F. );
#199 = ORIENTED_EDGE( '', *, *, #297, .F. );
#200 = ORIENTED_EDGE( '', *, *, #298, .F. );
#201 = ORIENTED_EDGE( '', *, *, #299, .F. );
#202 = ORIENTED_EDGE( '', *, *, #290, .T. );
#203 = ORIENTED_EDGE( '', *, *, #300, .T. );
#204 = ORIENTED_EDGE( '', *, *, #301, .T. );
#205 = ORIENTED_EDGE( '', *, *, #302, .F. );
#206 = CARTESIAN_POINT( '', ( 2.50000000000000, -3.50000000000000, 5.00000000000000 ) );
#207 = DIRECTION( '', ( 1.00000000000000, 0.000000000000000, 0.000000000000000 ) );
#208 = DIRECTION( '', ( 0.000000000000000, 0.000000000000000, -1.00000000000000 ) );
#209 = SURFACE_STYLE_FILL_AREA( #303 );
#210 = ORIENTED_EDGE( '', *, *, #304, .T. );
#211 = ORIENTED_EDGE( '', *, *, #294, .T. );
#212 = CARTESIAN_POINT( '', ( 3.64944746145911E-016, -3.50000000000000, 2.00000000000000 ) );
#213 = DIRECTION( '', ( -0.000000000000000, -1.00000000000000, -0.000000000000000 ) );
#214 = DIRECTION( '', ( 0.000000000000000, 0.000000000000000, -1.00000000000000 ) );
#215 = SURFACE_STYLE_FILL_AREA( #305 );
#216 = ORIENTED_EDGE( '', *, *, #284, .F. );
#217 = ORIENTED_EDGE( '', *, *, #302, .T. );
#218 = ORIENTED_EDGE( '', *, *, #306, .T. );
#219 = ORIENTED_EDGE( '', *, *, #307, .T. );
#220 = ORIENTED_EDGE( '', *, *, #308, .T. );
#221 = CARTESIAN_POINT( '', ( 0.000000000000000, 3.50000000000000, 0.000000000000000 ) );
#222 = DIRECTION( '', ( 0.000000000000000, 1.00000000000000, 0.000000000000000 ) );
#223 = DIRECTION( '', ( 0.000000000000000, 0.000000000000000, 1.00000000000000 ) );
#224 = SURFACE_STYLE_FILL_AREA( #309 );
#225 = ORIENTED_EDGE( '', *, *, #295, .T. );
#226 = ORIENTED_EDGE( '', *, *, #300, .F. );
#227 = ORIENTED_EDGE( '', *, *, #289, .F. );
#228 = ORIENTED_EDGE( '', *, *, #310, .F. );
#229 = ORIENTED_EDGE( '', *, *, #311, .F. );
#230 = CARTESIAN_POINT( '', ( 0.000000000000000, -3.50000000000000, 0.000000000000000 ) );
#231 = DIRECTION( '', ( 0.000000000000000, 1.00000000000000, 0.000000000000000 ) );
#232 = DIRECTION( '', ( 0.000000000000000, 0.000000000000000, 1.00000000000000 ) );
#233 = SURFACE_STYLE_FILL_AREA( #312 );
#234 = ORIENTED_EDGE( '', *, *, #298, .T. );
#235 = ORIENTED_EDGE( '', *, *, #313, .F. );
#236 = ORIENTED_EDGE( '', *, *, #314, .F. );
#237 = ORIENTED_EDGE( '', *, *, #315, .F. );
#238 = CARTESIAN_POINT( '', ( -2.50000000000000, -3.50000000000000, 5.00000000000000 ) );
#239 = DIRECTION( '', ( -1.73472347597680E-016, 0.000000000000000, 1.00000000000000 ) );
#240 = DIRECTION( '', ( 1.00000000000000, 0.000000000000000, 1.73472347597680E-016 ) );
#241 = SURFACE_STYLE_FILL_AREA( #316 );
#242 = ORIENTED_EDGE( '', *, *, #285, .T. );
#243 = ORIENTED_EDGE( '', *, *, #307, .F. );
#244 = ORIENTED_EDGE( '', *, *, #317, .F. );
#245 = ORIENTED_EDGE( '', *, *, #310, .T. );
#246 = ORIENTED_EDGE( '', *, *, #292, .F. );
#247 = ORIENTED_EDGE( '', *, *, #318, .F. );
#248 = ORIENTED_EDGE( '', *, *, #314, .T. );
#249 = ORIENTED_EDGE( '', *, *, #319, .F. );
#250 = CARTESIAN_POINT( '', ( -2.50000000000000, -3.50000000000000, -9.16648129161794E-016 ) );
#251 = DIRECTION( '', ( -1.00000000000000, 0.000000000000000, 0.000000000000000 ) );
#252 = DIRECTION( '', ( 0.000000000000000, 0.000000000000000, 1.00000000000000 ) );
#253 = SURFACE_STYLE_FILL_AREA( #320 );
#254 = ORIENTED_EDGE( '', *, *, #306, .F. );
#255 = ORIENTED_EDGE( '', *, *, #301, .F. );
#256 = ORIENTED_EDGE( '', *, *, #311, .T. );
#257 = ORIENTED_EDGE( '', *, *, #317, .T. );
#258 = CARTESIAN_POINT( '', ( 2.50000000000000, -3.50000000000000, -3.04324729588118E-016 ) );
#259 = DIRECTION( '', ( 1.22464679914735E-016, 0.000000000000000, -1.00000000000000 ) );
#260 = DIRECTION( '', ( -1.00000000000000, 0.000000000000000, -1.22464679914735E-016 ) );
#261 = SURFACE_STYLE_FILL_AREA( #321 );
#262 = ORIENTED_EDGE( '', *, *, #304, .F. );
#263 = ORIENTED_EDGE( '', *, *, #308, .F. );
#264 = CARTESIAN_POINT( '', ( 3.64944746145911E-016, 3.50000000000000, 2.00000000000000 ) );
#265 = DIRECTION( '', ( -0.000000000000000, 1.00000000000000, -0.000000000000000 ) );
#266 = DIRECTION( '', ( 1.00000000000000, 0.000000000000000, 0.000000000000000 ) );
#267 = SURFACE_STYLE_FILL_AREA( #322 );
#268 = ORIENTED_EDGE( '', *, *, #319, .T. );
#269 = ORIENTED_EDGE( '', *, *, #313, .T. );
#270 = ORIENTED_EDGE( '', *, *, #297, .T. );
#271 = ORIENTED_EDGE( '', *, *, #286, .T. );
#272 = CARTESIAN_POINT( '', ( 0.000000000000000, 3.00000000000000, 54.4382065582545 ) );
#273 = DIRECTION( '', ( 0.000000000000000, 1.00000000000000, 0.000000000000000 ) );
#274 = DIRECTION( '', ( 0.000000000000000, 0.000000000000000, 1.00000000000000 ) );
#275 = SURFACE_STYLE_FILL_AREA( #323 );
#276 = ORIENTED_EDGE( '', *, *, #315, .T. );
#277 = ORIENTED_EDGE( '', *, *, #318, .T. );
#278 = ORIENTED_EDGE( '', *, *, #291, .T. );
#279 = ORIENTED_EDGE( '', *, *, #299, .T. );
#280 = CARTESIAN_POINT( '', ( 0.000000000000000, -3.00000000000000, 54.4382065582545 ) );
#281 = DIRECTION( '', ( 0.000000000000000, -1.00000000000000, 0.000000000000000 ) );
#282 = DIRECTION( '', ( 0.000000000000000, 0.000000000000000, -1.00000000000000 ) );
#283 = FILL_AREA_STYLE( '', ( #324 ) );
#284 = EDGE_CURVE( '', #325, #326, #327, .T. );
#285 = EDGE_CURVE( '', #328, #326, #329, .T. );
#286 = EDGE_CURVE( '', #330, #328, #331, .T. );
#287 = EDGE_CURVE( '', #330, #325, #332, .T. );
#288 = FILL_AREA_STYLE( '', ( #333 ) );
#289 = EDGE_CURVE( '', #334, #335, #336, .T. );
#290 = EDGE_CURVE( '', #337, #335, #338, .T. );
#291 = EDGE_CURVE( '', #339, #337, #340, .T. );
#292 = EDGE_CURVE( '', #339, #334, #341, .T. );
#293 = FILL_AREA_STYLE( '', ( #342 ) );
#294 = EDGE_CURVE( '', #343, #343, #344, .T. );
#295 = EDGE_CURVE( '', #345, #345, #346, .T. );
#296 = FILL_AREA_STYLE( '', ( #347 ) );
#297 = EDGE_CURVE( '', #348, #330, #349, .T. );
#298 = EDGE_CURVE( '', #350, #348, #351, .T. );
#299 = EDGE_CURVE( '', #337, #350, #352, .T. );
#300 = EDGE_CURVE( '', #335, #353, #354, .T. );
#301 = EDGE_CURVE( '', #353, #355, #356, .T. );
#302 = EDGE_CURVE( '', #325, #355, #357, .T. );
#303 = FILL_AREA_STYLE( '', ( #358 ) );
#304 = EDGE_CURVE( '', #359, #359, #360, .T. );
#305 = FILL_AREA_STYLE( '', ( #361 ) );
#306 = EDGE_CURVE( '', #355, #362, #363, .T. );
#307 = EDGE_CURVE( '', #362, #326, #364, .T. );
#308 = EDGE_CURVE( '', #365, #365, #366, .T. );
#309 = FILL_AREA_STYLE( '', ( #367 ) );
#310 = EDGE_CURVE( '', #368, #334, #369, .T. );
#311 = EDGE_CURVE( '', #353, #368, #370, .T. );
#312 = FILL_AREA_STYLE( '', ( #371 ) );
#313 = EDGE_CURVE( '', #372, #348, #373, .T. );
#314 = EDGE_CURVE( '', #374, #372, #375, .T. );
#315 = EDGE_CURVE( '', #350, #374, #376, .T. );
#316 = FILL_AREA_STYLE( '', ( #377 ) );
#317 = EDGE_CURVE( '', #368, #362, #378, .T. );
#318 = EDGE_CURVE( '', #374, #339, #379, .T. );
#319 = EDGE_CURVE( '', #328, #372, #380, .T. );
#320 = FILL_AREA_STYLE( '', ( #381 ) );
#321 = FILL_AREA_STYLE( '', ( #382 ) );
#322 = FILL_AREA_STYLE( '', ( #383 ) );
#323 = FILL_AREA_STYLE( '', ( #384 ) );
#324 = FILL_AREA_STYLE_COLOUR( '', #385 );
#325 = VERTEX_POINT( '', #386 );
#326 = VERTEX_POINT( '', #387 );
#327 = CIRCLE( '', #388, 50.0000000000000 );
#328 = VERTEX_POINT( '', #389 );
#329 = LINE( '', #390, #391 );
#330 = VERTEX_POINT( '', #392 );
#331 = CIRCLE( '', #393, 50.0000000000000 );
#332 = LINE( '', #394, #395 );
#333 = FILL_AREA_STYLE_COLOUR( '', #396 );
#334 = VERTEX_POINT( '', #397 );
#335 = VERTEX_POINT( '', #398 );
#336 = CIRCLE( '', #399, 50.0000000000000 );
#337 = VERTEX_POINT( '', #400 );
#338 = LINE( '', #401, #402 );
#339 = VERTEX_POINT( '', #403 );
#340 = CIRCLE( '', #404, 50.0000000000000 );
#341 = LINE( '', #405, #406 );
#342 = FILL_AREA_STYLE_COLOUR( '', #407 );
#343 = VERTEX_POINT( '', #408 );
#344 = CIRCLE( '', #409, 1.00650000000000 );
#345 = VERTEX_POINT( '', #410 );
#346 = CIRCLE( '', #411, 1.35650000000000 );
#347 = FILL_AREA_STYLE_COLOUR( '', #412 );
#348 = VERTEX_POINT( '', #413 );
#349 = LINE( '', #414, #415 );
#350 = VERTEX_POINT( '', #416 );
#351 = LINE( '', #417, #418 );
#352 = LINE( '', #419, #420 );
#353 = VERTEX_POINT( '', #421 );
#354 = LINE( '', #422, #423 );
#355 = VERTEX_POINT( '', #424 );
#356 = LINE( '', #425, #426 );
#357 = LINE( '', #427, #428 );
#358 = FILL_AREA_STYLE_COLOUR( '', #429 );
#359 = VERTEX_POINT( '', #430 );
#360 = CIRCLE( '', #431, 1.00650000000000 );
#361 = FILL_AREA_STYLE_COLOUR( '', #432 );
#362 = VERTEX_POINT( '', #433 );
#363 = LINE( '', #434, #435 );
#364 = LINE( '', #436, #437 );
#365 = VERTEX_POINT( '', #438 );
#366 = CIRCLE( '', #439, 1.35650000000000 );
#367 = FILL_AREA_STYLE_COLOUR( '', #440 );
#368 = VERTEX_POINT( '', #441 );
#369 = LINE( '', #442, #443 );
#370 = LINE( '', #444, #445 );
#371 = FILL_AREA_STYLE_COLOUR( '', #446 );
#372 = VERTEX_POINT( '', #447 );
#373 = LINE( '', #448, #449 );
#374 = VERTEX_POINT( '', #450 );
#375 = LINE( '', #451, #452 );
#376 = LINE( '', #453, #454 );
#377 = FILL_AREA_STYLE_COLOUR( '', #455 );
#378 = LINE( '', #456, #457 );
#379 = LINE( '', #458, #459 );
#380 = LINE( '', #460, #461 );
#381 = FILL_AREA_STYLE_COLOUR( '', #462 );
#382 = FILL_AREA_STYLE_COLOUR( '', #463 );
#383 = FILL_AREA_STYLE_COLOUR( '', #464 );
#384 = FILL_AREA_STYLE_COLOUR( '', #465 );
#385 = COLOUR_RGB( '', 0.549019634700000, 0.309803932900000, 0.215686276600000 );
#386 = CARTESIAN_POINT( '', ( 2.50000000000000, 3.50000000000000, 4.50074566965907 ) );
#387 = CARTESIAN_POINT( '', ( -2.50000000000000, 3.50000000000000, 4.50074566965907 ) );
#388 = AXIS2_PLACEMENT_3D( '', #466, #467, #468 );
#389 = CARTESIAN_POINT( '', ( -2.50000000000000, 3.00000000000000, 4.50074566965907 ) );
#390 = CARTESIAN_POINT( '', ( -2.50000000000000, 3.00000000000000, 4.50074566965907 ) );
#391 = VECTOR( '', #469, 1000.00000000000 );
#392 = CARTESIAN_POINT( '', ( 2.50000000000000, 3.00000000000000, 4.50074566965906 ) );
#393 = AXIS2_PLACEMENT_3D( '', #470, #471, #472 );
#394 = CARTESIAN_POINT( '', ( 2.50000000000000, 3.00000000000000, 4.50074566965906 ) );
#395 = VECTOR( '', #473, 1000.00000000000 );
#396 = COLOUR_RGB( '', 0.549019634700000, 0.309803932900000, 0.215686276600000 );
#397 = CARTESIAN_POINT( '', ( -2.50000000000000, -3.50000000000000, 4.50074566965907 ) );
#398 = CARTESIAN_POINT( '', ( 2.49999999999996, -3.50000000000000, 4.50074566965907 ) );
#399 = AXIS2_PLACEMENT_3D( '', #474, #475, #476 );
#400 = CARTESIAN_POINT( '', ( 2.49999999999996, -3.00000000000000, 4.50074566965907 ) );
#401 = CARTESIAN_POINT( '', ( 2.49999999999996, -3.00000000000000, 4.50074566965907 ) );
#402 = VECTOR( '', #477, 1000.00000000000 );
#403 = CARTESIAN_POINT( '', ( -2.50000000000000, -3.00000000000000, 4.50074566965906 ) );
#404 = AXIS2_PLACEMENT_3D( '', #478, #479, #480 );
#405 = CARTESIAN_POINT( '', ( -2.50000000000000, -3.00000000000000, 4.50074566965906 ) );
#406 = VECTOR( '', #481, 1000.00000000000 );
#407 = COLOUR_RGB( '', 0.549019634700000, 0.309803932900000, 0.215686276600000 );
#408 = CARTESIAN_POINT( '', ( 3.64944746145911E-016, -3.15000000000000, 0.993500000000000 ) );
#409 = AXIS2_PLACEMENT_3D( '', #482, #483, #484 );
#410 = CARTESIAN_POINT( '', ( 1.35650000000000, -3.50000000000000, 2.00000000000000 ) );
#411 = AXIS2_PLACEMENT_3D( '', #485, #486, #487 );
#412 = COLOUR_RGB( '', 0.549019634700000, 0.309803932900000, 0.215686276600000 );
#413 = CARTESIAN_POINT( '', ( 2.50000000000000, 3.00000000000000, 5.00000000000000 ) );
#414 = CARTESIAN_POINT( '', ( 2.50000000000000, 3.00000000000000, 5.00000000000000 ) );
#415 = VECTOR( '', #488, 1000.00000000000 );
#416 = CARTESIAN_POINT( '', ( 2.50000000000000, -3.00000000000000, 5.00000000000000 ) );
#417 = CARTESIAN_POINT( '', ( 2.50000000000000, -3.50000000000000, 5.00000000000000 ) );
#418 = VECTOR( '', #489, 1000.00000000000 );
#419 = CARTESIAN_POINT( '', ( 2.50000000000000, -3.00000000000000, 5.00000000000000 ) );
#420 = VECTOR( '', #490, 1000.00000000000 );
#421 = CARTESIAN_POINT( '', ( 2.50000000000000, -3.50000000000000, -3.04324729588118E-016 ) );
#422 = CARTESIAN_POINT( '', ( 2.50000000000000, -3.50000000000000, 5.00000000000000 ) );
#423 = VECTOR( '', #491, 1000.00000000000 );
#424 = CARTESIAN_POINT( '', ( 2.50000000000000, 3.50000000000000, -3.04324729588118E-016 ) );
#425 = CARTESIAN_POINT( '', ( 2.50000000000000, -3.50000000000000, -3.04324729588118E-016 ) );
#426 = VECTOR( '', #492, 1000.00000000000 );
#427 = CARTESIAN_POINT( '', ( 2.50000000000000, 3.50000000000000, 5.00000000000000 ) );
#428 = VECTOR( '', #493, 1000.00000000000 );
#429 = COLOUR_RGB( '', 0.184313729400000, 0.749019622800000, 0.580392181900000 );
#430 = CARTESIAN_POINT( '', ( 3.64944746145911E-016, 3.15000000000000, 3.00650000000000 ) );
#431 = AXIS2_PLACEMENT_3D( '', #494, #495, #496 );
#432 = COLOUR_RGB( '', 0.549019634700000, 0.309803932900000, 0.215686276600000 );
#433 = CARTESIAN_POINT( '', ( -2.50000000000000, 3.50000000000000, -9.16648129161794E-016 ) );
#434 = CARTESIAN_POINT( '', ( 2.50000000000000, 3.50000000000000, -3.04324729588118E-016 ) );
#435 = VECTOR( '', #497, 1000.00000000000 );
#436 = CARTESIAN_POINT( '', ( -2.50000000000000, 3.50000000000000, -9.16648129161794E-016 ) );
#437 = VECTOR( '', #498, 1000.00000000000 );
#438 = CARTESIAN_POINT( '', ( 1.35650000000000, 3.50000000000000, 2.00000000000000 ) );
#439 = AXIS2_PLACEMENT_3D( '', #499, #500, #501 );
#440 = COLOUR_RGB( '', 0.549019634700000, 0.309803932900000, 0.215686276600000 );
#441 = CARTESIAN_POINT( '', ( -2.50000000000000, -3.50000000000000, -9.16648129161794E-016 ) );
#442 = CARTESIAN_POINT( '', ( -2.50000000000000, -3.50000000000000, -9.16648129161794E-016 ) );
#443 = VECTOR( '', #502, 1000.00000000000 );
#444 = CARTESIAN_POINT( '', ( 2.50000000000000, -3.50000000000000, -3.04324729588118E-016 ) );
#445 = VECTOR( '', #503, 1000.00000000000 );
#446 = COLOUR_RGB( '', 0.549019634700000, 0.309803932900000, 0.215686276600000 );
#447 = CARTESIAN_POINT( '', ( -2.50000000000000, 3.00000000000000, 5.00000000000000 ) );
#448 = CARTESIAN_POINT( '', ( -2.50000000000000, 3.00000000000000, 5.00000000000000 ) );
#449 = VECTOR( '', #504, 1000.00000000000 );
#450 = CARTESIAN_POINT( '', ( -2.50000000000000, -3.00000000000000, 5.00000000000000 ) );
#451 = CARTESIAN_POINT( '', ( -2.50000000000000, -3.50000000000000, 5.00000000000000 ) );
#452 = VECTOR( '', #505, 1000.00000000000 );
#453 = CARTESIAN_POINT( '', ( -2.50000000000000, -3.00000000000000, 5.00000000000000 ) );
#454 = VECTOR( '', #506, 1000.00000000000 );
#455 = COLOUR_RGB( '', 0.549019634700000, 0.309803932900000, 0.215686276600000 );
#456 = CARTESIAN_POINT( '', ( -2.50000000000000, -3.50000000000000, -9.16648129161794E-016 ) );
#457 = VECTOR( '', #507, 1000.00000000000 );
#458 = CARTESIAN_POINT( '', ( -2.50000000000000, -3.00000000000000, 5.00000000000000 ) );
#459 = VECTOR( '', #508, 1000.00000000000 );
#460 = CARTESIAN_POINT( '', ( -2.50000000000000, 3.00000000000000, 4.50074566965906 ) );
#461 = VECTOR( '', #509, 1000.00000000000 );
#462 = COLOUR_RGB( '', 0.549019634700000, 0.309803932900000, 0.215686276600000 );
#463 = COLOUR_RGB( '', 0.549019634700000, 0.309803932900000, 0.215686276600000 );
#464 = COLOUR_RGB( '', 0.549019634700000, 0.309803932900000, 0.215686276600000 );
#465 = COLOUR_RGB( '', 0.549019634700000, 0.309803932900000, 0.215686276600000 );
#466 = CARTESIAN_POINT( '', ( 0.000000000000000, 3.50000000000000, 54.4382065582545 ) );
#467 = DIRECTION( '', ( -0.000000000000000, 1.00000000000000, 0.000000000000000 ) );
#468 = DIRECTION( '', ( 1.00000000000000, 0.000000000000000, 0.000000000000000 ) );
#469 = DIRECTION( '', ( 0.000000000000000, 1.00000000000000, 0.000000000000000 ) );
#470 = CARTESIAN_POINT( '', ( 0.000000000000000, 3.00000000000000, 54.4382065582545 ) );
#471 = DIRECTION( '', ( -0.000000000000000, 1.00000000000000, 0.000000000000000 ) );
#472 = DIRECTION( '', ( 1.00000000000000, 0.000000000000000, 0.000000000000000 ) );
#473 = DIRECTION( '', ( 0.000000000000000, 1.00000000000000, 0.000000000000000 ) );
#474 = CARTESIAN_POINT( '', ( 0.000000000000000, -3.50000000000000, 54.4382065582545 ) );
#475 = DIRECTION( '', ( 0.000000000000000, -1.00000000000000, 0.000000000000000 ) );
#476 = DIRECTION( '', ( 1.00000000000000, 0.000000000000000, 0.000000000000000 ) );
#477 = DIRECTION( '', ( 0.000000000000000, -1.00000000000000, 0.000000000000000 ) );
#478 = CARTESIAN_POINT( '', ( 0.000000000000000, -3.00000000000000, 54.4382065582545 ) );
#479 = DIRECTION( '', ( 0.000000000000000, -1.00000000000000, 0.000000000000000 ) );
#480 = DIRECTION( '', ( 1.00000000000000, 0.000000000000000, 0.000000000000000 ) );
#481 = DIRECTION( '', ( 0.000000000000000, -1.00000000000000, 0.000000000000000 ) );
#482 = CARTESIAN_POINT( '', ( 3.64944746145911E-016, -3.15000000000000, 2.00000000000000 ) );
#483 = DIRECTION( '', ( 0.000000000000000, -1.00000000000000, 0.000000000000000 ) );
#484 = DIRECTION( '', ( 0.000000000000000, 0.000000000000000, -1.00000000000000 ) );
#485 = CARTESIAN_POINT( '', ( 3.64944746145911E-016, -3.50000000000000, 2.00000000000000 ) );
#486 = DIRECTION( '', ( -0.000000000000000, 1.00000000000000, 0.000000000000000 ) );
#487 = DIRECTION( '', ( 1.00000000000000, 0.000000000000000, 0.000000000000000 ) );
#488 = DIRECTION( '', ( 0.000000000000000, 0.000000000000000, -1.00000000000000 ) );
#489 = DIRECTION( '', ( 0.000000000000000, 1.00000000000000, 0.000000000000000 ) );
#490 = DIRECTION( '', ( 0.000000000000000, 0.000000000000000, 1.00000000000000 ) );
#491 = DIRECTION( '', ( 0.000000000000000, 0.000000000000000, -1.00000000000000 ) );
#492 = DIRECTION( '', ( 0.000000000000000, 1.00000000000000, 0.000000000000000 ) );
#493 = DIRECTION( '', ( 0.000000000000000, 0.000000000000000, -1.00000000000000 ) );
#494 = CARTESIAN_POINT( '', ( 3.64944746145911E-016, 3.15000000000000, 2.00000000000000 ) );
#495 = DIRECTION( '', ( 0.000000000000000, 1.00000000000000, 0.000000000000000 ) );
#496 = DIRECTION( '', ( 0.000000000000000, 0.000000000000000, 1.00000000000000 ) );
#497 = DIRECTION( '', ( -1.00000000000000, 0.000000000000000, -1.22464679914735E-016 ) );
#498 = DIRECTION( '', ( 0.000000000000000, 0.000000000000000, 1.00000000000000 ) );
#499 = CARTESIAN_POINT( '', ( 3.64944746145911E-016, 3.50000000000000, 2.00000000000000 ) );
#500 = DIRECTION( '', ( 0.000000000000000, -1.00000000000000, 0.000000000000000 ) );
#501 = DIRECTION( '', ( 1.00000000000000, 0.000000000000000, 0.000000000000000 ) );
#502 = DIRECTION( '', ( 0.000000000000000, 0.000000000000000, 1.00000000000000 ) );
#503 = DIRECTION( '', ( -1.00000000000000, 0.000000000000000, -1.22464679914735E-016 ) );
#504 = DIRECTION( '', ( 1.00000000000000, 0.000000000000000, 0.000000000000000 ) );
#505 = DIRECTION( '', ( 0.000000000000000, 1.00000000000000, 0.000000000000000 ) );
#506 = DIRECTION( '', ( -1.00000000000000, 0.000000000000000, 0.000000000000000 ) );
#507 = DIRECTION( '', ( 0.000000000000000, 1.00000000000000, 0.000000000000000 ) );
#508 = DIRECTION( '', ( 0.000000000000000, 0.000000000000000, -1.00000000000000 ) );
#509 = DIRECTION( '', ( 0.000000000000000, 0.000000000000000, 1.00000000000000 ) );
ENDSEC;
END-ISO-10303-21;
