ISO-10303-21;
HEADER;
FILE_DESCRIPTION( ( 'Unknown' ), '1' );
FILE_NAME( 'C:/Syc/3D/Product/eisos/AbsEGS/SRV_384xx4xx/384xx411/Rel_Data/384xx411_MaxSize.stp', 'Unknown', ( 'Unknown' ), ( 'Unknown' ), 'PSStep 21.0.46', 'Unknown', '  ' );
FILE_SCHEMA( ( 'AUTOMOTIVE_DESIGN { 1 0 10303 214 1 1 1 1 }' ) );
ENDSEC;
DATA;
#1 = PRODUCT_DEFINITION_CONTEXT( '', #18, 'design' );
#2 = APPLICATION_PROTOCOL_DEFINITION( 'international standard', 'automotive_design', 2001, #18 );
#3 = PRODUCT_CATEGORY_RELATIONSHIP( 'NONE', 'NONE', #19, #20 );
#4 = SHAPE_DEFINITION_REPRESENTATION( #21, #22 );
#5 = PRODUCT_CATEGORY_RELATIONSHIP( 'NONE', 'NONE', #19, #23 );
#6 = CONTEXT_DEPENDENT_SHAPE_REPRESENTATION( #24, #25 );
#7 = SHAPE_DEFINITION_REPRESENTATION( #26, #27 );
#8 = SHAPE_REPRESENTATION_RELATIONSHIP( 'NONE', 'NONE', #27, #28 );
#9 = PRODUCT_CATEGORY_RELATIONSHIP( 'NONE', 'NONE', #19, #29 );
#10 = CONTEXT_DEPENDENT_SHAPE_REPRESENTATION( #30, #31 );
#11 = SHAPE_DEFINITION_REPRESENTATION( #32, #33 );
#12 = SHAPE_REPRESENTATION_RELATIONSHIP( 'NONE', 'NONE', #33, #34 );
#13 = MECHANICAL_DESIGN_GEOMETRIC_PRESENTATION_REPRESENTATION( ' ', ( #35, #36, #37, #38, #39, #40 ), #14 );
#14 =  ( GEOMETRIC_REPRESENTATION_CONTEXT( 3 )GLOBAL_UNCERTAINTY_ASSIGNED_CONTEXT( ( #43 ) )GLOBAL_UNIT_ASSIGNED_CONTEXT( ( #45, #46, #47 ) )REPRESENTATION_CONTEXT( 'NONE', 'WORKSPACE' ) );
#18 = APPLICATION_CONTEXT( 'core data for automotive mechanical design processes' );
#19 = PRODUCT_CATEGORY( 'part', 'NONE' );
#20 = PRODUCT_RELATED_PRODUCT_CATEGORY( 'detail', ' ', ( #49 ) );
#21 = PRODUCT_DEFINITION_SHAPE( 'NONE', 'NONE', #50 );
#22 = SHAPE_REPRESENTATION( 'Assem1', ( #51, #52, #53 ), #54 );
#23 = PRODUCT_RELATED_PRODUCT_CATEGORY( 'detail', ' ', ( #55 ) );
#24 = ( REPRESENTATION_RELATIONSHIP( '', '', #27, #22 )REPRESENTATION_RELATIONSHIP_WITH_TRANSFORMATION( #58 )SHAPE_REPRESENTATION_RELATIONSHIP(  ) );
#25 = PRODUCT_DEFINITION_SHAPE( 'NAUO-PROD-DEF', 'NAUO-PROD-DEF', #60 );
#26 = PRODUCT_DEFINITION_SHAPE( 'NONE', 'NONE', #61 );
#27 = SHAPE_REPRESENTATION( 'MaxSize', ( #51 ), #54 );
#28 = ADVANCED_BREP_SHAPE_REPRESENTATION( 'MaxSize', ( #62 ), #14 );
#29 = PRODUCT_RELATED_PRODUCT_CATEGORY( 'detail', ' ', ( #63 ) );
#30 = ( REPRESENTATION_RELATIONSHIP( '', '', #33, #22 )REPRESENTATION_RELATIONSHIP_WITH_TRANSFORMATION( #66 )SHAPE_REPRESENTATION_RELATIONSHIP(  ) );
#31 = PRODUCT_DEFINITION_SHAPE( 'NAUO-PROD-DEF', 'NAUO-PROD-DEF', #68 );
#32 = PRODUCT_DEFINITION_SHAPE( 'NONE', 'NONE', #69 );
#33 = SHAPE_REPRESENTATION( '384xx411', ( #51 ), #54 );
#34 = ADVANCED_BREP_SHAPE_REPRESENTATION( '384xx411', ( #70 ), #14 );
#35 = STYLED_ITEM( '', ( #71 ), #72 );
#36 = STYLED_ITEM( '', ( #73 ), #74 );
#37 = STYLED_ITEM( '', ( #75 ), #76 );
#38 = STYLED_ITEM( '', ( #77 ), #78 );
#39 = STYLED_ITEM( '', ( #79 ), #80 );
#40 = STYLED_ITEM( '', ( #81 ), #82 );
#43 = UNCERTAINTY_MEASURE_WITH_UNIT( LENGTH_MEASURE( 0.00100000000000000 ), #45, '', '' );
#45 =  ( CONVERSION_BASED_UNIT( 'MILLIMETRE', #85 )LENGTH_UNIT(  )NAMED_UNIT( #88 ) );
#46 =  ( NAMED_UNIT( #90 )PLANE_ANGLE_UNIT(  )SI_UNIT( $, .RADIAN. ) );
#47 =  ( NAMED_UNIT( #90 )SI_UNIT( $, .STERADIAN. )SOLID_ANGLE_UNIT(  ) );
#49 = PRODUCT( 'Assem1', 'Assem1', 'PART-Assem1-DESC', ( #96 ) );
#50 = PRODUCT_DEFINITION( 'NONE', 'NONE', #97, #1 );
#51 = AXIS2_PLACEMENT_3D( '', #98, #99, #100 );
#52 = AXIS2_PLACEMENT_3D( '', #101, #102, #103 );
#53 = AXIS2_PLACEMENT_3D( '', #104, #105, #106 );
#54 =  ( GEOMETRIC_REPRESENTATION_CONTEXT( 3 )GLOBAL_UNCERTAINTY_ASSIGNED_CONTEXT( ( #109 ) )GLOBAL_UNIT_ASSIGNED_CONTEXT( ( #111, #112, #113 ) )REPRESENTATION_CONTEXT( 'NONE', 'WORKSPACE' ) );
#55 = PRODUCT( 'MaxSize', 'MaxSize', 'PART-MaxSize-DESC', ( #96 ) );
#58 = ITEM_DEFINED_TRANSFORMATION( '', '', #51, #52 );
#60 = NEXT_ASSEMBLY_USAGE_OCCURRENCE( 'NAUO1', 'MaxSize', 'MaxSize', #50, #61, $ );
#61 = PRODUCT_DEFINITION( 'MaxSize', 'MaxSize', #115, #1 );
#62 = MANIFOLD_SOLID_BREP( 'MaxSize', #116 );
#63 = PRODUCT( '384xx411', '384xx411', 'PART-384xx411-DESC', ( #96 ) );
#66 = ITEM_DEFINED_TRANSFORMATION( '', '', #51, #53 );
#68 = NEXT_ASSEMBLY_USAGE_OCCURRENCE( 'NAUO2', '384xx411', '384xx411', #50, #69, $ );
#69 = PRODUCT_DEFINITION( '384xx411', '384xx411', #117, #1 );
#70 = MANIFOLD_SOLID_BREP( '384xx411', #118 );
#71 = PRESENTATION_STYLE_ASSIGNMENT( ( #119 ) );
#72 = ADVANCED_FACE( '', ( #120 ), #121, .T. );
#73 = PRESENTATION_STYLE_ASSIGNMENT( ( #122 ) );
#74 = ADVANCED_FACE( '', ( #123 ), #124, .T. );
#75 = PRESENTATION_STYLE_ASSIGNMENT( ( #125 ) );
#76 = ADVANCED_FACE( '', ( #126 ), #127, .F. );
#77 = PRESENTATION_STYLE_ASSIGNMENT( ( #128 ) );
#78 = ADVANCED_FACE( '', ( #129, #130 ), #131, .T. );
#79 = PRESENTATION_STYLE_ASSIGNMENT( ( #132 ) );
#80 = ADVANCED_FACE( '', ( #133, #134 ), #135, .T. );
#81 = PRESENTATION_STYLE_ASSIGNMENT( ( #136 ) );
#82 = ADVANCED_FACE( '', ( #137 ), #138, .F. );
#85 = LENGTH_MEASURE_WITH_UNIT( LENGTH_MEASURE( 1.00000000000000 ), #139 );
#88 = DIMENSIONAL_EXPONENTS( 1.00000000000000, 0.000000000000000, 0.000000000000000, 0.000000000000000, 0.000000000000000, 0.000000000000000, 0.000000000000000 );
#90 = DIMENSIONAL_EXPONENTS( 0.000000000000000, 0.000000000000000, 0.000000000000000, 0.000000000000000, 0.000000000000000, 0.000000000000000, 0.000000000000000 );
#96 = PRODUCT_CONTEXT( '', #18, 'mechanical' );
#97 = PRODUCT_DEFINITION_FORMATION_WITH_SPECIFIED_SOURCE( ' ', 'NONE', #49, .NOT_KNOWN. );
#98 = CARTESIAN_POINT( '', ( 0.000000000000000, 0.000000000000000, 0.000000000000000 ) );
#99 = DIRECTION( '', ( 0.000000000000000, 0.000000000000000, 1.00000000000000 ) );
#100 = DIRECTION( '', ( 1.00000000000000, 0.000000000000000, 0.000000000000000 ) );
#101 = CARTESIAN_POINT( '', ( 0.000000000000000, 0.000000000000000, 0.000000000000000 ) );
#102 = DIRECTION( '', ( 0.000000000000000, 0.000000000000000, 1.00000000000000 ) );
#103 = DIRECTION( '', ( 1.00000000000000, 0.000000000000000, 0.000000000000000 ) );
#104 = CARTESIAN_POINT( '', ( 1.73472347597683E-15, 0.000000000000000, -0.0750000000000000 ) );
#105 = DIRECTION( '', ( 0.000000000000000, 0.000000000000000, 1.00000000000000 ) );
#106 = DIRECTION( '', ( 1.00000000000000, 0.000000000000000, 0.000000000000000 ) );
#109 = UNCERTAINTY_MEASURE_WITH_UNIT( LENGTH_MEASURE( 0.00100000000000000 ), #111, '', '' );
#111 =  ( CONVERSION_BASED_UNIT( 'MILLIMETRE', #142 )LENGTH_UNIT(  )NAMED_UNIT( #145 ) );
#112 =  ( NAMED_UNIT( #147 )PLANE_ANGLE_UNIT(  )SI_UNIT( $, .RADIAN. ) );
#113 =  ( NAMED_UNIT( #147 )SI_UNIT( $, .STERADIAN. )SOLID_ANGLE_UNIT(  ) );
#115 = PRODUCT_DEFINITION_FORMATION_WITH_SPECIFIED_SOURCE( ' ', 'NONE', #55, .NOT_KNOWN. );
#116 = CLOSED_SHELL( '', ( #82, #74, #80 ) );
#117 = PRODUCT_DEFINITION_FORMATION_WITH_SPECIFIED_SOURCE( ' ', 'NONE', #63, .NOT_KNOWN. );
#118 = CLOSED_SHELL( '', ( #76, #72, #78 ) );
#119 = SURFACE_STYLE_USAGE( .BOTH., #153 );
#120 = FACE_OUTER_BOUND( '', #154, .T. );
#121 = PLANE( '', #155 );
#122 = SURFACE_STYLE_USAGE( .BOTH., #156 );
#123 = FACE_OUTER_BOUND( '', #157, .T. );
#124 = PLANE( '', #158 );
#125 = SURFACE_STYLE_USAGE( .BOTH., #159 );
#126 = FACE_OUTER_BOUND( '', #160, .T. );
#127 = PLANE( '', #161 );
#128 = SURFACE_STYLE_USAGE( .BOTH., #162 );
#129 = FACE_OUTER_BOUND( '', #163, .T. );
#130 = FACE_OUTER_BOUND( '', #164, .T. );
#131 = CYLINDRICAL_SURFACE( '', #165, 1.75000000000000 );
#132 = SURFACE_STYLE_USAGE( .BOTH., #166 );
#133 = FACE_OUTER_BOUND( '', #167, .T. );
#134 = FACE_OUTER_BOUND( '', #168, .T. );
#135 = CYLINDRICAL_SURFACE( '', #169, 1.82500000000000 );
#136 = SURFACE_STYLE_USAGE( .BOTH., #170 );
#137 = FACE_OUTER_BOUND( '', #171, .T. );
#138 = PLANE( '', #172 );
#139 =  ( LENGTH_UNIT(  )NAMED_UNIT( #88 )SI_UNIT( .MILLI., .METRE. ) );
#142 = LENGTH_MEASURE_WITH_UNIT( LENGTH_MEASURE( 1.00000000000000 ), #174 );
#145 = DIMENSIONAL_EXPONENTS( 1.00000000000000, 0.000000000000000, 0.000000000000000, 0.000000000000000, 0.000000000000000, 0.000000000000000, 0.000000000000000 );
#147 = DIMENSIONAL_EXPONENTS( 0.000000000000000, 0.000000000000000, 0.000000000000000, 0.000000000000000, 0.000000000000000, 0.000000000000000, 0.000000000000000 );
#153 = SURFACE_SIDE_STYLE( '', ( #175 ) );
#154 = EDGE_LOOP( '', ( #176 ) );
#155 = AXIS2_PLACEMENT_3D( '', #177, #178, #179 );
#156 = SURFACE_SIDE_STYLE( '', ( #180 ) );
#157 = EDGE_LOOP( '', ( #181 ) );
#158 = AXIS2_PLACEMENT_3D( '', #182, #183, #184 );
#159 = SURFACE_SIDE_STYLE( '', ( #185 ) );
#160 = EDGE_LOOP( '', ( #186 ) );
#161 = AXIS2_PLACEMENT_3D( '', #187, #188, #189 );
#162 = SURFACE_SIDE_STYLE( '', ( #190 ) );
#163 = EDGE_LOOP( '', ( #191 ) );
#164 = EDGE_LOOP( '', ( #192 ) );
#165 = AXIS2_PLACEMENT_3D( '', #193, #194, #195 );
#166 = SURFACE_SIDE_STYLE( '', ( #196 ) );
#167 = EDGE_LOOP( '', ( #197 ) );
#168 = EDGE_LOOP( '', ( #198 ) );
#169 = AXIS2_PLACEMENT_3D( '', #199, #200, #201 );
#170 = SURFACE_SIDE_STYLE( '', ( #202 ) );
#171 = EDGE_LOOP( '', ( #203 ) );
#172 = AXIS2_PLACEMENT_3D( '', #204, #205, #206 );
#174 =  ( LENGTH_UNIT(  )NAMED_UNIT( #145 )SI_UNIT( .MILLI., .METRE. ) );
#175 = SURFACE_STYLE_FILL_AREA( #208 );
#176 = ORIENTED_EDGE( '', *, *, #209, .T. );
#177 = CARTESIAN_POINT( '', ( 0.000000000000000, -500.000000000000, 0.000000000000000 ) );
#178 = DIRECTION( '', ( 0.000000000000000, -1.00000000000000, 0.000000000000000 ) );
#179 = DIRECTION( '', ( 0.000000000000000, 0.000000000000000, -1.00000000000000 ) );
#180 = SURFACE_STYLE_FILL_AREA( #210 );
#181 = ORIENTED_EDGE( '', *, *, #211, .T. );
#182 = CARTESIAN_POINT( '', ( 0.000000000000000, -500.100000000000, 0.000000000000000 ) );
#183 = DIRECTION( '', ( 0.000000000000000, -1.00000000000000, 0.000000000000000 ) );
#184 = DIRECTION( '', ( 0.000000000000000, 0.000000000000000, -1.00000000000000 ) );
#185 = SURFACE_STYLE_FILL_AREA( #212 );
#186 = ORIENTED_EDGE( '', *, *, #213, .F. );
#187 = CARTESIAN_POINT( '', ( 0.000000000000000, 500.000000000000, 0.000000000000000 ) );
#188 = DIRECTION( '', ( 0.000000000000000, -1.00000000000000, 0.000000000000000 ) );
#189 = DIRECTION( '', ( 0.000000000000000, 0.000000000000000, -1.00000000000000 ) );
#190 = SURFACE_STYLE_FILL_AREA( #214 );
#191 = ORIENTED_EDGE( '', *, *, #209, .F. );
#192 = ORIENTED_EDGE( '', *, *, #213, .T. );
#193 = CARTESIAN_POINT( '', ( 0.000000000000000, -500.000000000000, 0.000000000000000 ) );
#194 = DIRECTION( '', ( -0.000000000000000, -1.00000000000000, -0.000000000000000 ) );
#195 = DIRECTION( '', ( 0.000000000000000, 0.000000000000000, 1.00000000000000 ) );
#196 = SURFACE_STYLE_FILL_AREA( #215 );
#197 = ORIENTED_EDGE( '', *, *, #211, .F. );
#198 = ORIENTED_EDGE( '', *, *, #216, .T. );
#199 = CARTESIAN_POINT( '', ( 0.000000000000000, -500.100000000000, 0.000000000000000 ) );
#200 = DIRECTION( '', ( -0.000000000000000, -1.00000000000000, -0.000000000000000 ) );
#201 = DIRECTION( '', ( 0.000000000000000, 0.000000000000000, 1.00000000000000 ) );
#202 = SURFACE_STYLE_FILL_AREA( #217 );
#203 = ORIENTED_EDGE( '', *, *, #216, .F. );
#204 = CARTESIAN_POINT( '', ( 0.000000000000000, 500.100000000000, 0.000000000000000 ) );
#205 = DIRECTION( '', ( 0.000000000000000, -1.00000000000000, 0.000000000000000 ) );
#206 = DIRECTION( '', ( 0.000000000000000, 0.000000000000000, -1.00000000000000 ) );
#208 = FILL_AREA_STYLE( '', ( #218 ) );
#209 = EDGE_CURVE( '', #219, #219, #220, .T. );
#210 = FILL_AREA_STYLE( '', ( #221 ) );
#211 = EDGE_CURVE( '', #222, #222, #223, .T. );
#212 = FILL_AREA_STYLE( '', ( #224 ) );
#213 = EDGE_CURVE( '', #225, #225, #226, .T. );
#214 = FILL_AREA_STYLE( '', ( #227 ) );
#215 = FILL_AREA_STYLE( '', ( #228 ) );
#216 = EDGE_CURVE( '', #229, #229, #230, .T. );
#217 = FILL_AREA_STYLE( '', ( #231 ) );
#218 = FILL_AREA_STYLE_COLOUR( '', #232 );
#219 = VERTEX_POINT( '', #233 );
#220 = CIRCLE( '', #234, 1.75000000000000 );
#221 = FILL_AREA_STYLE_COLOUR( '', #235 );
#222 = VERTEX_POINT( '', #236 );
#223 = CIRCLE( '', #237, 1.82500000000000 );
#224 = FILL_AREA_STYLE_COLOUR( '', #238 );
#225 = VERTEX_POINT( '', #239 );
#226 = CIRCLE( '', #240, 1.75000000000000 );
#227 = FILL_AREA_STYLE_COLOUR( '', #241 );
#228 = FILL_AREA_STYLE_COLOUR( '', #242 );
#229 = VERTEX_POINT( '', #243 );
#230 = CIRCLE( '', #244, 1.82500000000000 );
#231 = FILL_AREA_STYLE_COLOUR( '', #245 );
#232 = COLOUR_RGB( '', 0.750000000000000, 0.695399999600000, 0.555000007200000 );
#233 = CARTESIAN_POINT( '', ( 1.75000000000000, -500.000000000000, 0.000000000000000 ) );
#234 = AXIS2_PLACEMENT_3D( '', #246, #247, #248 );
#235 = COLOUR_RGB( '', 1.00000000000000, 1.00000000000000, 1.00000000000000 );
#236 = CARTESIAN_POINT( '', ( 1.82500000000000, -500.100000000000, 0.000000000000000 ) );
#237 = AXIS2_PLACEMENT_3D( '', #249, #250, #251 );
#238 = COLOUR_RGB( '', 0.750000000000000, 0.695399999600000, 0.555000007200000 );
#239 = CARTESIAN_POINT( '', ( 1.75000000000000, 500.000000000000, 0.000000000000000 ) );
#240 = AXIS2_PLACEMENT_3D( '', #252, #253, #254 );
#241 = COLOUR_RGB( '', 0.750000000000000, 0.695399999600000, 0.555000007200000 );
#242 = COLOUR_RGB( '', 1.00000000000000, 1.00000000000000, 1.00000000000000 );
#243 = CARTESIAN_POINT( '', ( 1.82500000000000, 500.100000000000, 0.000000000000000 ) );
#244 = AXIS2_PLACEMENT_3D( '', #255, #256, #257 );
#245 = COLOUR_RGB( '', 1.00000000000000, 1.00000000000000, 1.00000000000000 );
#246 = CARTESIAN_POINT( '', ( 0.000000000000000, -500.000000000000, 0.000000000000000 ) );
#247 = DIRECTION( '', ( 0.000000000000000, -1.00000000000000, 0.000000000000000 ) );
#248 = DIRECTION( '', ( 1.00000000000000, 0.000000000000000, 0.000000000000000 ) );
#249 = CARTESIAN_POINT( '', ( 0.000000000000000, -500.100000000000, 0.000000000000000 ) );
#250 = DIRECTION( '', ( 0.000000000000000, -1.00000000000000, 0.000000000000000 ) );
#251 = DIRECTION( '', ( 1.00000000000000, 0.000000000000000, 0.000000000000000 ) );
#252 = CARTESIAN_POINT( '', ( 0.000000000000000, 500.000000000000, 0.000000000000000 ) );
#253 = DIRECTION( '', ( 0.000000000000000, -1.00000000000000, 0.000000000000000 ) );
#254 = DIRECTION( '', ( 1.00000000000000, 0.000000000000000, 0.000000000000000 ) );
#255 = CARTESIAN_POINT( '', ( 0.000000000000000, 500.100000000000, 0.000000000000000 ) );
#256 = DIRECTION( '', ( 0.000000000000000, -1.00000000000000, 0.000000000000000 ) );
#257 = DIRECTION( '', ( 1.00000000000000, 0.000000000000000, 0.000000000000000 ) );
ENDSEC;
END-ISO-10303-21;
