ISO-10303-21;
HEADER;
FILE_DESCRIPTION( ( 'Unknown' ), '1' );
FILE_NAME( 'C:/Syc/3D/Product/eisos/AbsEGS/SRH_384xx3xx/384xx305/Rel_Data/384xx305_MaxSize.stp', 'Unknown', ( 'Unknown' ), ( 'Unknown' ), 'PSStep 21.0.46', 'Unknown', '  ' );
FILE_SCHEMA( ( 'AUTOMOTIVE_DESIGN { 1 0 10303 214 1 1 1 1 }' ) );
ENDSEC;
DATA;
#1 = PRODUCT_DEFINITION_CONTEXT( '', #18, 'design' );
#2 = APPLICATION_PROTOCOL_DEFINITION( 'international standard', 'automotive_design', 2001, #18 );
#3 = PRODUCT_CATEGORY_RELATIONSHIP( 'NONE', 'NONE', #19, #20 );
#4 = SHAPE_DEFINITION_REPRESENTATION( #21, #22 );
#5 = PRODUCT_CATEGORY_RELATIONSHIP( 'NONE', 'NONE', #19, #23 );
#6 = CONTEXT_DEPENDENT_SHAPE_REPRESENTATION( #24, #25 );
#7 = SHAPE_DEFINITION_REPRESENTATION( #26, #27 );
#8 = SHAPE_REPRESENTATION_RELATIONSHIP( 'NONE', 'NONE', #27, #28 );
#9 = PRODUCT_CATEGORY_RELATIONSHIP( 'NONE', 'NONE', #19, #29 );
#10 = CONTEXT_DEPENDENT_SHAPE_REPRESENTATION( #30, #31 );
#11 = SHAPE_DEFINITION_REPRESENTATION( #32, #33 );
#12 = SHAPE_REPRESENTATION_RELATIONSHIP( 'NONE', 'NONE', #33, #34 );
#13 = MECHANICAL_DESIGN_GEOMETRIC_PRESENTATION_REPRESENTATION( ' ', ( #35, #36, #37, #38, #39, #40, #41 ), #14 );
#14 =  ( GEOMETRIC_REPRESENTATION_CONTEXT( 3 )GLOBAL_UNCERTAINTY_ASSIGNED_CONTEXT( ( #44 ) )GLOBAL_UNIT_ASSIGNED_CONTEXT( ( #46, #47, #48 ) )REPRESENTATION_CONTEXT( 'NONE', 'WORKSPACE' ) );
#18 = APPLICATION_CONTEXT( 'core data for automotive mechanical design processes' );
#19 = PRODUCT_CATEGORY( 'part', 'NONE' );
#20 = PRODUCT_RELATED_PRODUCT_CATEGORY( 'detail', ' ', ( #50 ) );
#21 = PRODUCT_DEFINITION_SHAPE( 'NONE', 'NONE', #51 );
#22 = SHAPE_REPRESENTATION( 'Assem1', ( #52, #53, #54 ), #55 );
#23 = PRODUCT_RELATED_PRODUCT_CATEGORY( 'detail', ' ', ( #56 ) );
#24 = ( REPRESENTATION_RELATIONSHIP( '', '', #27, #22 )REPRESENTATION_RELATIONSHIP_WITH_TRANSFORMATION( #59 )SHAPE_REPRESENTATION_RELATIONSHIP(  ) );
#25 = PRODUCT_DEFINITION_SHAPE( 'NAUO-PROD-DEF', 'NAUO-PROD-DEF', #61 );
#26 = PRODUCT_DEFINITION_SHAPE( 'NONE', 'NONE', #62 );
#27 = SHAPE_REPRESENTATION( 'MaxSize', ( #52 ), #55 );
#28 = ADVANCED_BREP_SHAPE_REPRESENTATION( 'MaxSize', ( #63 ), #14 );
#29 = PRODUCT_RELATED_PRODUCT_CATEGORY( 'detail', ' ', ( #64 ) );
#30 = ( REPRESENTATION_RELATIONSHIP( '', '', #33, #22 )REPRESENTATION_RELATIONSHIP_WITH_TRANSFORMATION( #67 )SHAPE_REPRESENTATION_RELATIONSHIP(  ) );
#31 = PRODUCT_DEFINITION_SHAPE( 'NAUO-PROD-DEF', 'NAUO-PROD-DEF', #69 );
#32 = PRODUCT_DEFINITION_SHAPE( 'NONE', 'NONE', #70 );
#33 = SHAPE_REPRESENTATION( '384xx305', ( #52 ), #55 );
#34 = ADVANCED_BREP_SHAPE_REPRESENTATION( '384xx305', ( #71 ), #14 );
#35 = STYLED_ITEM( '', ( #72 ), #73 );
#36 = STYLED_ITEM( '', ( #74 ), #75 );
#37 = STYLED_ITEM( '', ( #76 ), #77 );
#38 = STYLED_ITEM( '', ( #78 ), #79 );
#39 = STYLED_ITEM( '', ( #80 ), #81 );
#40 = STYLED_ITEM( '', ( #82 ), #83 );
#41 = STYLED_ITEM( '', ( #84 ), #85 );
#44 = UNCERTAINTY_MEASURE_WITH_UNIT( LENGTH_MEASURE( 0.00100000000000000 ), #46, '', '' );
#46 =  ( CONVERSION_BASED_UNIT( 'MILLIMETRE', #88 )LENGTH_UNIT(  )NAMED_UNIT( #91 ) );
#47 =  ( NAMED_UNIT( #93 )PLANE_ANGLE_UNIT(  )SI_UNIT( $, .RADIAN. ) );
#48 =  ( NAMED_UNIT( #93 )SI_UNIT( $, .STERADIAN. )SOLID_ANGLE_UNIT(  ) );
#50 = PRODUCT( 'Assem1', 'Assem1', 'PART-Assem1-DESC', ( #99 ) );
#51 = PRODUCT_DEFINITION( 'NONE', 'NONE', #100, #1 );
#52 = AXIS2_PLACEMENT_3D( '', #101, #102, #103 );
#53 = AXIS2_PLACEMENT_3D( '', #104, #105, #106 );
#54 = AXIS2_PLACEMENT_3D( '', #107, #108, #109 );
#55 =  ( GEOMETRIC_REPRESENTATION_CONTEXT( 3 )GLOBAL_UNCERTAINTY_ASSIGNED_CONTEXT( ( #112 ) )GLOBAL_UNIT_ASSIGNED_CONTEXT( ( #114, #115, #116 ) )REPRESENTATION_CONTEXT( 'NONE', 'WORKSPACE' ) );
#56 = PRODUCT( 'MaxSize', 'MaxSize', 'PART-MaxSize-DESC', ( #99 ) );
#59 = ITEM_DEFINED_TRANSFORMATION( '', '', #52, #53 );
#61 = NEXT_ASSEMBLY_USAGE_OCCURRENCE( 'NAUO1', 'MaxSize', 'MaxSize', #51, #62, $ );
#62 = PRODUCT_DEFINITION( 'MaxSize', 'MaxSize', #118, #1 );
#63 = MANIFOLD_SOLID_BREP( 'MaxSize', #119 );
#64 = PRODUCT( '384xx305', '384xx305', 'PART-384xx305-DESC', ( #99 ) );
#67 = ITEM_DEFINED_TRANSFORMATION( '', '', #52, #54 );
#69 = NEXT_ASSEMBLY_USAGE_OCCURRENCE( 'NAUO2', '384xx305', '384xx305', #51, #70, $ );
#70 = PRODUCT_DEFINITION( '384xx305', '384xx305', #120, #1 );
#71 = MANIFOLD_SOLID_BREP( '384xx305', #121 );
#72 = PRESENTATION_STYLE_ASSIGNMENT( ( #122 ) );
#73 = ADVANCED_FACE( '', ( #123, #124 ), #125, .T. );
#74 = PRESENTATION_STYLE_ASSIGNMENT( ( #126 ) );
#75 = ADVANCED_FACE( '', ( #127, #128 ), #129, .T. );
#76 = PRESENTATION_STYLE_ASSIGNMENT( ( #130 ) );
#77 = ADVANCED_FACE( '', ( #131, #132 ), #133, .F. );
#78 = PRESENTATION_STYLE_ASSIGNMENT( ( #134 ) );
#79 = ADVANCED_FACE( '', ( #135, #136 ), #137, .T. );
#80 = PRESENTATION_STYLE_ASSIGNMENT( ( #138 ) );
#81 = ADVANCED_FACE( '', ( #139, #140 ), #141, .F. );
#82 = PRESENTATION_STYLE_ASSIGNMENT( ( #142 ) );
#83 = ADVANCED_FACE( '', ( #143 ), #144, .F. );
#84 = PRESENTATION_STYLE_ASSIGNMENT( ( #145 ) );
#85 = ADVANCED_FACE( '', ( #146 ), #147, .T. );
#88 = LENGTH_MEASURE_WITH_UNIT( LENGTH_MEASURE( 1.00000000000000 ), #148 );
#91 = DIMENSIONAL_EXPONENTS( 1.00000000000000, 0.000000000000000, 0.000000000000000, 0.000000000000000, 0.000000000000000, 0.000000000000000, 0.000000000000000 );
#93 = DIMENSIONAL_EXPONENTS( 0.000000000000000, 0.000000000000000, 0.000000000000000, 0.000000000000000, 0.000000000000000, 0.000000000000000, 0.000000000000000 );
#99 = PRODUCT_CONTEXT( '', #18, 'mechanical' );
#100 = PRODUCT_DEFINITION_FORMATION_WITH_SPECIFIED_SOURCE( ' ', 'NONE', #50, .NOT_KNOWN. );
#101 = CARTESIAN_POINT( '', ( 0.000000000000000, 0.000000000000000, 0.000000000000000 ) );
#102 = DIRECTION( '', ( 0.000000000000000, 0.000000000000000, 1.00000000000000 ) );
#103 = DIRECTION( '', ( 1.00000000000000, 0.000000000000000, 0.000000000000000 ) );
#104 = CARTESIAN_POINT( '', ( 0.000000000000000, 0.000000000000000, 0.000000000000000 ) );
#105 = DIRECTION( '', ( 0.000000000000000, 0.000000000000000, 1.00000000000000 ) );
#106 = DIRECTION( '', ( 1.00000000000000, 0.000000000000000, 0.000000000000000 ) );
#107 = CARTESIAN_POINT( '', ( -2.26732447986341E-16, 0.000000000000000, -0.0750000000000000 ) );
#108 = DIRECTION( '', ( 0.000000000000000, 0.000000000000000, 1.00000000000000 ) );
#109 = DIRECTION( '', ( 1.00000000000000, 0.000000000000000, 0.000000000000000 ) );
#112 = UNCERTAINTY_MEASURE_WITH_UNIT( LENGTH_MEASURE( 0.00100000000000000 ), #114, '', '' );
#114 =  ( CONVERSION_BASED_UNIT( 'MILLIMETRE', #151 )LENGTH_UNIT(  )NAMED_UNIT( #154 ) );
#115 =  ( NAMED_UNIT( #156 )PLANE_ANGLE_UNIT(  )SI_UNIT( $, .RADIAN. ) );
#116 =  ( NAMED_UNIT( #156 )SI_UNIT( $, .STERADIAN. )SOLID_ANGLE_UNIT(  ) );
#118 = PRODUCT_DEFINITION_FORMATION_WITH_SPECIFIED_SOURCE( ' ', 'NONE', #56, .NOT_KNOWN. );
#119 = CLOSED_SHELL( '', ( #83, #85, #75 ) );
#120 = PRODUCT_DEFINITION_FORMATION_WITH_SPECIFIED_SOURCE( ' ', 'NONE', #64, .NOT_KNOWN. );
#121 = CLOSED_SHELL( '', ( #81, #73, #77, #79 ) );
#122 = SURFACE_STYLE_USAGE( .BOTH., #162 );
#123 = FACE_OUTER_BOUND( '', #163, .T. );
#124 = FACE_OUTER_BOUND( '', #164, .T. );
#125 = CYLINDRICAL_SURFACE( '', #165, 2.25000000000000 );
#126 = SURFACE_STYLE_USAGE( .BOTH., #166 );
#127 = FACE_OUTER_BOUND( '', #167, .T. );
#128 = FACE_OUTER_BOUND( '', #168, .T. );
#129 = CYLINDRICAL_SURFACE( '', #169, 2.32500000000000 );
#130 = SURFACE_STYLE_USAGE( .BOTH., #170 );
#131 = FACE_BOUND( '', #171, .T. );
#132 = FACE_OUTER_BOUND( '', #172, .T. );
#133 = PLANE( '', #173 );
#134 = SURFACE_STYLE_USAGE( .BOTH., #174 );
#135 = FACE_BOUND( '', #175, .T. );
#136 = FACE_OUTER_BOUND( '', #176, .T. );
#137 = PLANE( '', #177 );
#138 = SURFACE_STYLE_USAGE( .BOTH., #178 );
#139 = FACE_OUTER_BOUND( '', #179, .T. );
#140 = FACE_OUTER_BOUND( '', #180, .T. );
#141 = CYLINDRICAL_SURFACE( '', #181, 1.00000000000000 );
#142 = SURFACE_STYLE_USAGE( .BOTH., #182 );
#143 = FACE_OUTER_BOUND( '', #183, .T. );
#144 = PLANE( '', #184 );
#145 = SURFACE_STYLE_USAGE( .BOTH., #185 );
#146 = FACE_OUTER_BOUND( '', #186, .T. );
#147 = PLANE( '', #187 );
#148 =  ( LENGTH_UNIT(  )NAMED_UNIT( #91 )SI_UNIT( .MILLI., .METRE. ) );
#151 = LENGTH_MEASURE_WITH_UNIT( LENGTH_MEASURE( 1.00000000000000 ), #189 );
#154 = DIMENSIONAL_EXPONENTS( 1.00000000000000, 0.000000000000000, 0.000000000000000, 0.000000000000000, 0.000000000000000, 0.000000000000000, 0.000000000000000 );
#156 = DIMENSIONAL_EXPONENTS( 0.000000000000000, 0.000000000000000, 0.000000000000000, 0.000000000000000, 0.000000000000000, 0.000000000000000, 0.000000000000000 );
#162 = SURFACE_SIDE_STYLE( '', ( #190 ) );
#163 = EDGE_LOOP( '', ( #191 ) );
#164 = EDGE_LOOP( '', ( #192 ) );
#165 = AXIS2_PLACEMENT_3D( '', #193, #194, #195 );
#166 = SURFACE_SIDE_STYLE( '', ( #196 ) );
#167 = EDGE_LOOP( '', ( #197 ) );
#168 = EDGE_LOOP( '', ( #198 ) );
#169 = AXIS2_PLACEMENT_3D( '', #199, #200, #201 );
#170 = SURFACE_SIDE_STYLE( '', ( #202 ) );
#171 = EDGE_LOOP( '', ( #203 ) );
#172 = EDGE_LOOP( '', ( #204 ) );
#173 = AXIS2_PLACEMENT_3D( '', #205, #206, #207 );
#174 = SURFACE_SIDE_STYLE( '', ( #208 ) );
#175 = EDGE_LOOP( '', ( #209 ) );
#176 = EDGE_LOOP( '', ( #210 ) );
#177 = AXIS2_PLACEMENT_3D( '', #211, #212, #213 );
#178 = SURFACE_SIDE_STYLE( '', ( #214 ) );
#179 = EDGE_LOOP( '', ( #215 ) );
#180 = EDGE_LOOP( '', ( #216 ) );
#181 = AXIS2_PLACEMENT_3D( '', #217, #218, #219 );
#182 = SURFACE_SIDE_STYLE( '', ( #220 ) );
#183 = EDGE_LOOP( '', ( #221 ) );
#184 = AXIS2_PLACEMENT_3D( '', #222, #223, #224 );
#185 = SURFACE_SIDE_STYLE( '', ( #225 ) );
#186 = EDGE_LOOP( '', ( #226 ) );
#187 = AXIS2_PLACEMENT_3D( '', #227, #228, #229 );
#189 =  ( LENGTH_UNIT(  )NAMED_UNIT( #154 )SI_UNIT( .MILLI., .METRE. ) );
#190 = SURFACE_STYLE_FILL_AREA( #231 );
#191 = ORIENTED_EDGE( '', *, *, #232, .F. );
#192 = ORIENTED_EDGE( '', *, *, #233, .T. );
#193 = CARTESIAN_POINT( '', ( 0.000000000000000, -500.000000000000, 0.000000000000000 ) );
#194 = DIRECTION( '', ( -0.000000000000000, -1.00000000000000, -0.000000000000000 ) );
#195 = DIRECTION( '', ( 0.000000000000000, 0.000000000000000, 1.00000000000000 ) );
#196 = SURFACE_STYLE_FILL_AREA( #234 );
#197 = ORIENTED_EDGE( '', *, *, #235, .F. );
#198 = ORIENTED_EDGE( '', *, *, #236, .T. );
#199 = CARTESIAN_POINT( '', ( 0.000000000000000, -500.100000000000, 0.000000000000000 ) );
#200 = DIRECTION( '', ( -0.000000000000000, -1.00000000000000, -0.000000000000000 ) );
#201 = DIRECTION( '', ( 0.000000000000000, 0.000000000000000, 1.00000000000000 ) );
#202 = SURFACE_STYLE_FILL_AREA( #237 );
#203 = ORIENTED_EDGE( '', *, *, #238, .T. );
#204 = ORIENTED_EDGE( '', *, *, #233, .F. );
#205 = CARTESIAN_POINT( '', ( 0.000000000000000, 500.000000000000, 0.000000000000000 ) );
#206 = DIRECTION( '', ( 0.000000000000000, -1.00000000000000, 0.000000000000000 ) );
#207 = DIRECTION( '', ( 0.000000000000000, 0.000000000000000, -1.00000000000000 ) );
#208 = SURFACE_STYLE_FILL_AREA( #239 );
#209 = ORIENTED_EDGE( '', *, *, #240, .F. );
#210 = ORIENTED_EDGE( '', *, *, #232, .T. );
#211 = CARTESIAN_POINT( '', ( 0.000000000000000, -500.000000000000, 0.000000000000000 ) );
#212 = DIRECTION( '', ( 0.000000000000000, -1.00000000000000, 0.000000000000000 ) );
#213 = DIRECTION( '', ( 0.000000000000000, 0.000000000000000, -1.00000000000000 ) );
#214 = SURFACE_STYLE_FILL_AREA( #241 );
#215 = ORIENTED_EDGE( '', *, *, #240, .T. );
#216 = ORIENTED_EDGE( '', *, *, #238, .F. );
#217 = CARTESIAN_POINT( '', ( 0.000000000000000, -500.000000000000, 0.000000000000000 ) );
#218 = DIRECTION( '', ( -0.000000000000000, -1.00000000000000, -0.000000000000000 ) );
#219 = DIRECTION( '', ( 0.000000000000000, 0.000000000000000, 1.00000000000000 ) );
#220 = SURFACE_STYLE_FILL_AREA( #242 );
#221 = ORIENTED_EDGE( '', *, *, #236, .F. );
#222 = CARTESIAN_POINT( '', ( 0.000000000000000, 500.100000000000, 0.000000000000000 ) );
#223 = DIRECTION( '', ( 0.000000000000000, -1.00000000000000, 0.000000000000000 ) );
#224 = DIRECTION( '', ( 0.000000000000000, 0.000000000000000, -1.00000000000000 ) );
#225 = SURFACE_STYLE_FILL_AREA( #243 );
#226 = ORIENTED_EDGE( '', *, *, #235, .T. );
#227 = CARTESIAN_POINT( '', ( 0.000000000000000, -500.100000000000, 0.000000000000000 ) );
#228 = DIRECTION( '', ( 0.000000000000000, -1.00000000000000, 0.000000000000000 ) );
#229 = DIRECTION( '', ( 0.000000000000000, 0.000000000000000, -1.00000000000000 ) );
#231 = FILL_AREA_STYLE( '', ( #244 ) );
#232 = EDGE_CURVE( '', #245, #245, #246, .T. );
#233 = EDGE_CURVE( '', #247, #247, #248, .T. );
#234 = FILL_AREA_STYLE( '', ( #249 ) );
#235 = EDGE_CURVE( '', #250, #250, #251, .T. );
#236 = EDGE_CURVE( '', #252, #252, #253, .T. );
#237 = FILL_AREA_STYLE( '', ( #254 ) );
#238 = EDGE_CURVE( '', #255, #255, #256, .T. );
#239 = FILL_AREA_STYLE( '', ( #257 ) );
#240 = EDGE_CURVE( '', #258, #258, #259, .T. );
#241 = FILL_AREA_STYLE( '', ( #260 ) );
#242 = FILL_AREA_STYLE( '', ( #261 ) );
#243 = FILL_AREA_STYLE( '', ( #262 ) );
#244 = FILL_AREA_STYLE_COLOUR( '', #263 );
#245 = VERTEX_POINT( '', #264 );
#246 = CIRCLE( '', #265, 2.25000000000000 );
#247 = VERTEX_POINT( '', #266 );
#248 = CIRCLE( '', #267, 2.25000000000000 );
#249 = FILL_AREA_STYLE_COLOUR( '', #268 );
#250 = VERTEX_POINT( '', #269 );
#251 = CIRCLE( '', #270, 2.32500000000000 );
#252 = VERTEX_POINT( '', #271 );
#253 = CIRCLE( '', #272, 2.32500000000000 );
#254 = FILL_AREA_STYLE_COLOUR( '', #273 );
#255 = VERTEX_POINT( '', #274 );
#256 = CIRCLE( '', #275, 1.00000000000000 );
#257 = FILL_AREA_STYLE_COLOUR( '', #276 );
#258 = VERTEX_POINT( '', #277 );
#259 = CIRCLE( '', #278, 1.00000000000000 );
#260 = FILL_AREA_STYLE_COLOUR( '', #279 );
#261 = FILL_AREA_STYLE_COLOUR( '', #280 );
#262 = FILL_AREA_STYLE_COLOUR( '', #281 );
#263 = COLOUR_RGB( '', 0.750000000000000, 0.695399999600000, 0.555000007200000 );
#264 = CARTESIAN_POINT( '', ( 2.25000000000000, -500.000000000000, 0.000000000000000 ) );
#265 = AXIS2_PLACEMENT_3D( '', #282, #283, #284 );
#266 = CARTESIAN_POINT( '', ( 2.25000000000000, 500.000000000000, 0.000000000000000 ) );
#267 = AXIS2_PLACEMENT_3D( '', #285, #286, #287 );
#268 = COLOUR_RGB( '', 1.00000000000000, 1.00000000000000, 1.00000000000000 );
#269 = CARTESIAN_POINT( '', ( 2.32500000000000, -500.100000000000, 0.000000000000000 ) );
#270 = AXIS2_PLACEMENT_3D( '', #288, #289, #290 );
#271 = CARTESIAN_POINT( '', ( 2.32500000000000, 500.100000000000, 0.000000000000000 ) );
#272 = AXIS2_PLACEMENT_3D( '', #291, #292, #293 );
#273 = COLOUR_RGB( '', 0.750000000000000, 0.695399999600000, 0.555000007200000 );
#274 = CARTESIAN_POINT( '', ( 1.00000000000000, 500.000000000000, 0.000000000000000 ) );
#275 = AXIS2_PLACEMENT_3D( '', #294, #295, #296 );
#276 = COLOUR_RGB( '', 0.750000000000000, 0.695399999600000, 0.555000007200000 );
#277 = CARTESIAN_POINT( '', ( 1.00000000000000, -500.000000000000, 0.000000000000000 ) );
#278 = AXIS2_PLACEMENT_3D( '', #297, #298, #299 );
#279 = COLOUR_RGB( '', 0.750000000000000, 0.695399999600000, 0.555000007200000 );
#280 = COLOUR_RGB( '', 1.00000000000000, 1.00000000000000, 1.00000000000000 );
#281 = COLOUR_RGB( '', 1.00000000000000, 1.00000000000000, 1.00000000000000 );
#282 = CARTESIAN_POINT( '', ( 0.000000000000000, -500.000000000000, 0.000000000000000 ) );
#283 = DIRECTION( '', ( 0.000000000000000, -1.00000000000000, 0.000000000000000 ) );
#284 = DIRECTION( '', ( 1.00000000000000, 0.000000000000000, 0.000000000000000 ) );
#285 = CARTESIAN_POINT( '', ( 0.000000000000000, 500.000000000000, 0.000000000000000 ) );
#286 = DIRECTION( '', ( 0.000000000000000, -1.00000000000000, 0.000000000000000 ) );
#287 = DIRECTION( '', ( 1.00000000000000, 0.000000000000000, 0.000000000000000 ) );
#288 = CARTESIAN_POINT( '', ( 0.000000000000000, -500.100000000000, 0.000000000000000 ) );
#289 = DIRECTION( '', ( 0.000000000000000, -1.00000000000000, 0.000000000000000 ) );
#290 = DIRECTION( '', ( 1.00000000000000, 0.000000000000000, 0.000000000000000 ) );
#291 = CARTESIAN_POINT( '', ( 0.000000000000000, 500.100000000000, 0.000000000000000 ) );
#292 = DIRECTION( '', ( 0.000000000000000, -1.00000000000000, 0.000000000000000 ) );
#293 = DIRECTION( '', ( 1.00000000000000, 0.000000000000000, 0.000000000000000 ) );
#294 = CARTESIAN_POINT( '', ( 0.000000000000000, 500.000000000000, 0.000000000000000 ) );
#295 = DIRECTION( '', ( 0.000000000000000, -1.00000000000000, 0.000000000000000 ) );
#296 = DIRECTION( '', ( 1.00000000000000, 0.000000000000000, 0.000000000000000 ) );
#297 = CARTESIAN_POINT( '', ( 0.000000000000000, -500.000000000000, 0.000000000000000 ) );
#298 = DIRECTION( '', ( 0.000000000000000, -1.00000000000000, 0.000000000000000 ) );
#299 = DIRECTION( '', ( 1.00000000000000, 0.000000000000000, 0.000000000000000 ) );
ENDSEC;
END-ISO-10303-21;
