ISO-10303-21;
HEADER;
FILE_DESCRIPTION( ( 'Unknown' ), '1' );
FILE_NAME( 'C:/Syc/3D/Product/eisos/AbsEGS/SRE_384xx2xx/384xx202/Rel_Data/384xx202_MaxSize.stp', 'Unknown', ( 'Unknown' ), ( 'Unknown' ), 'PSStep 21.0.46', 'Unknown', '  ' );
FILE_SCHEMA( ( 'AUTOMOTIVE_DESIGN { 1 0 10303 214 1 1 1 1 }' ) );
ENDSEC;
DATA;
#1 = PRODUCT_DEFINITION_CONTEXT( '', #18, 'design' );
#2 = APPLICATION_PROTOCOL_DEFINITION( 'international standard', 'automotive_design', 2001, #18 );
#3 = PRODUCT_CATEGORY_RELATIONSHIP( 'NONE', 'NONE', #19, #20 );
#4 = SHAPE_DEFINITION_REPRESENTATION( #21, #22 );
#5 = PRODUCT_CATEGORY_RELATIONSHIP( 'NONE', 'NONE', #19, #23 );
#6 = CONTEXT_DEPENDENT_SHAPE_REPRESENTATION( #24, #25 );
#7 = SHAPE_DEFINITION_REPRESENTATION( #26, #27 );
#8 = SHAPE_REPRESENTATION_RELATIONSHIP( 'NONE', 'NONE', #27, #28 );
#9 = PRODUCT_CATEGORY_RELATIONSHIP( 'NONE', 'NONE', #19, #29 );
#10 = CONTEXT_DEPENDENT_SHAPE_REPRESENTATION( #30, #31 );
#11 = SHAPE_DEFINITION_REPRESENTATION( #32, #33 );
#12 = SHAPE_REPRESENTATION_RELATIONSHIP( 'NONE', 'NONE', #33, #34 );
#13 = MECHANICAL_DESIGN_GEOMETRIC_PRESENTATION_REPRESENTATION( ' ', ( #35, #36, #37, #38, #39, #40, #41, #42, #43, #44, #45, #46 ), #14 );
#14 =  ( GEOMETRIC_REPRESENTATION_CONTEXT( 3 )GLOBAL_UNCERTAINTY_ASSIGNED_CONTEXT( ( #49 ) )GLOBAL_UNIT_ASSIGNED_CONTEXT( ( #51, #52, #53 ) )REPRESENTATION_CONTEXT( 'NONE', 'WORKSPACE' ) );
#18 = APPLICATION_CONTEXT( 'core data for automotive mechanical design processes' );
#19 = PRODUCT_CATEGORY( 'part', 'NONE' );
#20 = PRODUCT_RELATED_PRODUCT_CATEGORY( 'detail', ' ', ( #55 ) );
#21 = PRODUCT_DEFINITION_SHAPE( 'NONE', 'NONE', #56 );
#22 = SHAPE_REPRESENTATION( 'Assem1', ( #57, #58, #59 ), #60 );
#23 = PRODUCT_RELATED_PRODUCT_CATEGORY( 'detail', ' ', ( #61 ) );
#24 = ( REPRESENTATION_RELATIONSHIP( '', '', #27, #22 )REPRESENTATION_RELATIONSHIP_WITH_TRANSFORMATION( #64 )SHAPE_REPRESENTATION_RELATIONSHIP(  ) );
#25 = PRODUCT_DEFINITION_SHAPE( 'NAUO-PROD-DEF', 'NAUO-PROD-DEF', #66 );
#26 = PRODUCT_DEFINITION_SHAPE( 'NONE', 'NONE', #67 );
#27 = SHAPE_REPRESENTATION( 'MaxSized Square', ( #57 ), #60 );
#28 = ADVANCED_BREP_SHAPE_REPRESENTATION( 'MaxSized Square', ( #68 ), #14 );
#29 = PRODUCT_RELATED_PRODUCT_CATEGORY( 'detail', ' ', ( #69 ) );
#30 = ( REPRESENTATION_RELATIONSHIP( '', '', #33, #22 )REPRESENTATION_RELATIONSHIP_WITH_TRANSFORMATION( #72 )SHAPE_REPRESENTATION_RELATIONSHIP(  ) );
#31 = PRODUCT_DEFINITION_SHAPE( 'NAUO-PROD-DEF', 'NAUO-PROD-DEF', #74 );
#32 = PRODUCT_DEFINITION_SHAPE( 'NONE', 'NONE', #75 );
#33 = SHAPE_REPRESENTATION( '384xx202', ( #57 ), #60 );
#34 = ADVANCED_BREP_SHAPE_REPRESENTATION( '384xx202', ( #76 ), #14 );
#35 = STYLED_ITEM( '', ( #77 ), #78 );
#36 = STYLED_ITEM( '', ( #79 ), #80 );
#37 = STYLED_ITEM( '', ( #81 ), #82 );
#38 = STYLED_ITEM( '', ( #83 ), #84 );
#39 = STYLED_ITEM( '', ( #85 ), #86 );
#40 = STYLED_ITEM( '', ( #87 ), #88 );
#41 = STYLED_ITEM( '', ( #89 ), #90 );
#42 = STYLED_ITEM( '', ( #91 ), #92 );
#43 = STYLED_ITEM( '', ( #93 ), #94 );
#44 = STYLED_ITEM( '', ( #95 ), #96 );
#45 = STYLED_ITEM( '', ( #97 ), #98 );
#46 = STYLED_ITEM( '', ( #99 ), #100 );
#49 = UNCERTAINTY_MEASURE_WITH_UNIT( LENGTH_MEASURE( 0.00100000000000000 ), #51, '', '' );
#51 =  ( CONVERSION_BASED_UNIT( 'MILLIMETRE', #103 )LENGTH_UNIT(  )NAMED_UNIT( #106 ) );
#52 =  ( NAMED_UNIT( #108 )PLANE_ANGLE_UNIT(  )SI_UNIT( $, .RADIAN. ) );
#53 =  ( NAMED_UNIT( #108 )SI_UNIT( $, .STERADIAN. )SOLID_ANGLE_UNIT(  ) );
#55 = PRODUCT( 'Assem1', 'Assem1', 'PART-Assem1-DESC', ( #114 ) );
#56 = PRODUCT_DEFINITION( 'NONE', 'NONE', #115, #1 );
#57 = AXIS2_PLACEMENT_3D( '', #116, #117, #118 );
#58 = AXIS2_PLACEMENT_3D( '', #119, #120, #121 );
#59 = AXIS2_PLACEMENT_3D( '', #122, #123, #124 );
#60 =  ( GEOMETRIC_REPRESENTATION_CONTEXT( 3 )GLOBAL_UNCERTAINTY_ASSIGNED_CONTEXT( ( #127 ) )GLOBAL_UNIT_ASSIGNED_CONTEXT( ( #129, #130, #131 ) )REPRESENTATION_CONTEXT( 'NONE', 'WORKSPACE' ) );
#61 = PRODUCT( 'MaxSized Square', 'MaxSized Square', 'PART-MaxSized Square-DESC', ( #114 ) );
#64 = ITEM_DEFINED_TRANSFORMATION( '', '', #57, #58 );
#66 = NEXT_ASSEMBLY_USAGE_OCCURRENCE( 'NAUO1', 'MaxSized Square', 'MaxSized Square', #56, #67, $ );
#67 = PRODUCT_DEFINITION( 'MaxSized Square', 'MaxSized Square', #133, #1 );
#68 = MANIFOLD_SOLID_BREP( 'MaxSized Square', #134 );
#69 = PRODUCT( '384xx202', '384xx202', 'PART-384xx202-DESC', ( #114 ) );
#72 = ITEM_DEFINED_TRANSFORMATION( '', '', #57, #59 );
#74 = NEXT_ASSEMBLY_USAGE_OCCURRENCE( 'NAUO2', '384xx202', '384xx202', #56, #75, $ );
#75 = PRODUCT_DEFINITION( '384xx202', '384xx202', #135, #1 );
#76 = MANIFOLD_SOLID_BREP( '384xx202', #136 );
#77 = PRESENTATION_STYLE_ASSIGNMENT( ( #137 ) );
#78 = ADVANCED_FACE( '', ( #138 ), #139, .T. );
#79 = PRESENTATION_STYLE_ASSIGNMENT( ( #140 ) );
#80 = ADVANCED_FACE( '', ( #141 ), #142, .T. );
#81 = PRESENTATION_STYLE_ASSIGNMENT( ( #143 ) );
#82 = ADVANCED_FACE( '', ( #144 ), #145, .F. );
#83 = PRESENTATION_STYLE_ASSIGNMENT( ( #146 ) );
#84 = ADVANCED_FACE( '', ( #147 ), #148, .T. );
#85 = PRESENTATION_STYLE_ASSIGNMENT( ( #149 ) );
#86 = ADVANCED_FACE( '', ( #150 ), #151, .T. );
#87 = PRESENTATION_STYLE_ASSIGNMENT( ( #152 ) );
#88 = ADVANCED_FACE( '', ( #153 ), #154, .T. );
#89 = PRESENTATION_STYLE_ASSIGNMENT( ( #155 ) );
#90 = ADVANCED_FACE( '', ( #156 ), #157, .T. );
#91 = PRESENTATION_STYLE_ASSIGNMENT( ( #158 ) );
#92 = ADVANCED_FACE( '', ( #159 ), #160, .T. );
#93 = PRESENTATION_STYLE_ASSIGNMENT( ( #161 ) );
#94 = ADVANCED_FACE( '', ( #162 ), #163, .T. );
#95 = PRESENTATION_STYLE_ASSIGNMENT( ( #164 ) );
#96 = ADVANCED_FACE( '', ( #165 ), #166, .T. );
#97 = PRESENTATION_STYLE_ASSIGNMENT( ( #167 ) );
#98 = ADVANCED_FACE( '', ( #168 ), #169, .T. );
#99 = PRESENTATION_STYLE_ASSIGNMENT( ( #170 ) );
#100 = ADVANCED_FACE( '', ( #171 ), #172, .F. );
#103 = LENGTH_MEASURE_WITH_UNIT( LENGTH_MEASURE( 1.00000000000000 ), #173 );
#106 = DIMENSIONAL_EXPONENTS( 1.00000000000000, 0.000000000000000, 0.000000000000000, 0.000000000000000, 0.000000000000000, 0.000000000000000, 0.000000000000000 );
#108 = DIMENSIONAL_EXPONENTS( 0.000000000000000, 0.000000000000000, 0.000000000000000, 0.000000000000000, 0.000000000000000, 0.000000000000000, 0.000000000000000 );
#114 = PRODUCT_CONTEXT( '', #18, 'mechanical' );
#115 = PRODUCT_DEFINITION_FORMATION_WITH_SPECIFIED_SOURCE( ' ', 'NONE', #55, .NOT_KNOWN. );
#116 = CARTESIAN_POINT( '', ( 0.000000000000000, 0.000000000000000, 0.000000000000000 ) );
#117 = DIRECTION( '', ( 0.000000000000000, 0.000000000000000, 1.00000000000000 ) );
#118 = DIRECTION( '', ( 1.00000000000000, 0.000000000000000, 0.000000000000000 ) );
#119 = CARTESIAN_POINT( '', ( 0.000000000000000, 0.000000000000000, 0.000000000000000 ) );
#120 = DIRECTION( '', ( 0.000000000000000, 0.000000000000000, 1.00000000000000 ) );
#121 = DIRECTION( '', ( 1.00000000000000, 0.000000000000000, 0.000000000000000 ) );
#122 = CARTESIAN_POINT( '', ( 3.79470760369927E-15, 0.000000000000000, -0.0500000000000032 ) );
#123 = DIRECTION( '', ( 0.000000000000000, 0.000000000000000, 1.00000000000000 ) );
#124 = DIRECTION( '', ( 1.00000000000000, 0.000000000000000, 0.000000000000000 ) );
#127 = UNCERTAINTY_MEASURE_WITH_UNIT( LENGTH_MEASURE( 0.00100000000000000 ), #129, '', '' );
#129 =  ( CONVERSION_BASED_UNIT( 'MILLIMETRE', #176 )LENGTH_UNIT(  )NAMED_UNIT( #179 ) );
#130 =  ( NAMED_UNIT( #181 )PLANE_ANGLE_UNIT(  )SI_UNIT( $, .RADIAN. ) );
#131 =  ( NAMED_UNIT( #181 )SI_UNIT( $, .STERADIAN. )SOLID_ANGLE_UNIT(  ) );
#133 = PRODUCT_DEFINITION_FORMATION_WITH_SPECIFIED_SOURCE( ' ', 'NONE', #61, .NOT_KNOWN. );
#134 = CLOSED_SHELL( '', ( #94, #78, #86, #98, #84, #100 ) );
#135 = PRODUCT_DEFINITION_FORMATION_WITH_SPECIFIED_SOURCE( ' ', 'NONE', #69, .NOT_KNOWN. );
#136 = CLOSED_SHELL( '', ( #92, #80, #90, #88, #96, #82 ) );
#137 = SURFACE_STYLE_USAGE( .BOTH., #187 );
#138 = FACE_OUTER_BOUND( '', #188, .T. );
#139 = PLANE( '', #189 );
#140 = SURFACE_STYLE_USAGE( .BOTH., #190 );
#141 = FACE_OUTER_BOUND( '', #191, .T. );
#142 = PLANE( '', #192 );
#143 = SURFACE_STYLE_USAGE( .BOTH., #193 );
#144 = FACE_OUTER_BOUND( '', #194, .T. );
#145 = PLANE( '', #195 );
#146 = SURFACE_STYLE_USAGE( .BOTH., #196 );
#147 = FACE_OUTER_BOUND( '', #197, .T. );
#148 = PLANE( '', #198 );
#149 = SURFACE_STYLE_USAGE( .BOTH., #199 );
#150 = FACE_OUTER_BOUND( '', #200, .T. );
#151 = PLANE( '', #201 );
#152 = SURFACE_STYLE_USAGE( .BOTH., #202 );
#153 = FACE_OUTER_BOUND( '', #203, .T. );
#154 = PLANE( '', #204 );
#155 = SURFACE_STYLE_USAGE( .BOTH., #205 );
#156 = FACE_OUTER_BOUND( '', #206, .T. );
#157 = PLANE( '', #207 );
#158 = SURFACE_STYLE_USAGE( .BOTH., #208 );
#159 = FACE_OUTER_BOUND( '', #209, .T. );
#160 = PLANE( '', #210 );
#161 = SURFACE_STYLE_USAGE( .BOTH., #211 );
#162 = FACE_OUTER_BOUND( '', #212, .T. );
#163 = PLANE( '', #213 );
#164 = SURFACE_STYLE_USAGE( .BOTH., #214 );
#165 = FACE_OUTER_BOUND( '', #215, .T. );
#166 = PLANE( '', #216 );
#167 = SURFACE_STYLE_USAGE( .BOTH., #217 );
#168 = FACE_OUTER_BOUND( '', #218, .T. );
#169 = PLANE( '', #219 );
#170 = SURFACE_STYLE_USAGE( .BOTH., #220 );
#171 = FACE_OUTER_BOUND( '', #221, .T. );
#172 = PLANE( '', #222 );
#173 =  ( LENGTH_UNIT(  )NAMED_UNIT( #106 )SI_UNIT( .MILLI., .METRE. ) );
#176 = LENGTH_MEASURE_WITH_UNIT( LENGTH_MEASURE( 1.00000000000000 ), #224 );
#179 = DIMENSIONAL_EXPONENTS( 1.00000000000000, 0.000000000000000, 0.000000000000000, 0.000000000000000, 0.000000000000000, 0.000000000000000, 0.000000000000000 );
#181 = DIMENSIONAL_EXPONENTS( 0.000000000000000, 0.000000000000000, 0.000000000000000, 0.000000000000000, 0.000000000000000, 0.000000000000000, 0.000000000000000 );
#187 = SURFACE_SIDE_STYLE( '', ( #225 ) );
#188 = EDGE_LOOP( '', ( #226, #227, #228, #229 ) );
#189 = AXIS2_PLACEMENT_3D( '', #230, #231, #232 );
#190 = SURFACE_SIDE_STYLE( '', ( #233 ) );
#191 = EDGE_LOOP( '', ( #234, #235, #236, #237 ) );
#192 = AXIS2_PLACEMENT_3D( '', #238, #239, #240 );
#193 = SURFACE_SIDE_STYLE( '', ( #241 ) );
#194 = EDGE_LOOP( '', ( #242, #243, #244, #245 ) );
#195 = AXIS2_PLACEMENT_3D( '', #246, #247, #248 );
#196 = SURFACE_SIDE_STYLE( '', ( #249 ) );
#197 = EDGE_LOOP( '', ( #250, #251, #252, #253 ) );
#198 = AXIS2_PLACEMENT_3D( '', #254, #255, #256 );
#199 = SURFACE_SIDE_STYLE( '', ( #257 ) );
#200 = EDGE_LOOP( '', ( #258, #259, #260, #261 ) );
#201 = AXIS2_PLACEMENT_3D( '', #262, #263, #264 );
#202 = SURFACE_SIDE_STYLE( '', ( #265 ) );
#203 = EDGE_LOOP( '', ( #266, #267, #268, #269 ) );
#204 = AXIS2_PLACEMENT_3D( '', #270, #271, #272 );
#205 = SURFACE_SIDE_STYLE( '', ( #273 ) );
#206 = EDGE_LOOP( '', ( #274, #275, #276, #277 ) );
#207 = AXIS2_PLACEMENT_3D( '', #278, #279, #280 );
#208 = SURFACE_SIDE_STYLE( '', ( #281 ) );
#209 = EDGE_LOOP( '', ( #282, #283, #284, #285 ) );
#210 = AXIS2_PLACEMENT_3D( '', #286, #287, #288 );
#211 = SURFACE_SIDE_STYLE( '', ( #289 ) );
#212 = EDGE_LOOP( '', ( #290, #291, #292, #293 ) );
#213 = AXIS2_PLACEMENT_3D( '', #294, #295, #296 );
#214 = SURFACE_SIDE_STYLE( '', ( #297 ) );
#215 = EDGE_LOOP( '', ( #298, #299, #300, #301 ) );
#216 = AXIS2_PLACEMENT_3D( '', #302, #303, #304 );
#217 = SURFACE_SIDE_STYLE( '', ( #305 ) );
#218 = EDGE_LOOP( '', ( #306, #307, #308, #309 ) );
#219 = AXIS2_PLACEMENT_3D( '', #310, #311, #312 );
#220 = SURFACE_SIDE_STYLE( '', ( #313 ) );
#221 = EDGE_LOOP( '', ( #314, #315, #316, #317 ) );
#222 = AXIS2_PLACEMENT_3D( '', #318, #319, #320 );
#224 =  ( LENGTH_UNIT(  )NAMED_UNIT( #179 )SI_UNIT( .MILLI., .METRE. ) );
#225 = SURFACE_STYLE_FILL_AREA( #322 );
#226 = ORIENTED_EDGE( '', *, *, #323, .F. );
#227 = ORIENTED_EDGE( '', *, *, #324, .F. );
#228 = ORIENTED_EDGE( '', *, *, #325, .T. );
#229 = ORIENTED_EDGE( '', *, *, #326, .T. );
#230 = CARTESIAN_POINT( '', ( 1.28000000000000, -500.100000000000, -0.835000000000000 ) );
#231 = DIRECTION( '', ( 0.000000000000000, 0.000000000000000, -1.00000000000000 ) );
#232 = DIRECTION( '', ( -1.00000000000000, 0.000000000000000, 0.000000000000000 ) );
#233 = SURFACE_STYLE_FILL_AREA( #327 );
#234 = ORIENTED_EDGE( '', *, *, #328, .F. );
#235 = ORIENTED_EDGE( '', *, *, #329, .F. );
#236 = ORIENTED_EDGE( '', *, *, #330, .T. );
#237 = ORIENTED_EDGE( '', *, *, #331, .T. );
#238 = CARTESIAN_POINT( '', ( -1.20500000000000, -500.000000000000, 0.785000000000000 ) );
#239 = DIRECTION( '', ( -4.49876420118467E-17, 0.000000000000000, 1.00000000000000 ) );
#240 = DIRECTION( '', ( 1.00000000000000, 0.000000000000000, 4.49876420118466E-17 ) );
#241 = SURFACE_STYLE_FILL_AREA( #332 );
#242 = ORIENTED_EDGE( '', *, *, #333, .F. );
#243 = ORIENTED_EDGE( '', *, *, #334, .F. );
#244 = ORIENTED_EDGE( '', *, *, #335, .F. );
#245 = ORIENTED_EDGE( '', *, *, #330, .F. );
#246 = CARTESIAN_POINT( '', ( -1.20500000000000, -500.000000000000, 0.785000000000000 ) );
#247 = DIRECTION( '', ( 0.000000000000000, 1.00000000000000, 0.000000000000000 ) );
#248 = DIRECTION( '', ( 0.000000000000000, 0.000000000000000, 1.00000000000000 ) );
#249 = SURFACE_STYLE_FILL_AREA( #336 );
#250 = ORIENTED_EDGE( '', *, *, #337, .T. );
#251 = ORIENTED_EDGE( '', *, *, #323, .T. );
#252 = ORIENTED_EDGE( '', *, *, #338, .T. );
#253 = ORIENTED_EDGE( '', *, *, #339, .T. );
#254 = CARTESIAN_POINT( '', ( 1.28000000000000, 500.100000000000, -0.835000000000000 ) );
#255 = DIRECTION( '', ( 0.000000000000000, 1.00000000000000, 0.000000000000000 ) );
#256 = DIRECTION( '', ( 0.000000000000000, 0.000000000000000, 1.00000000000000 ) );
#257 = SURFACE_STYLE_FILL_AREA( #340 );
#258 = ORIENTED_EDGE( '', *, *, #338, .F. );
#259 = ORIENTED_EDGE( '', *, *, #326, .F. );
#260 = ORIENTED_EDGE( '', *, *, #341, .T. );
#261 = ORIENTED_EDGE( '', *, *, #342, .T. );
#262 = CARTESIAN_POINT( '', ( -1.28000000000000, -500.100000000000, -0.835000000000000 ) );
#263 = DIRECTION( '', ( -1.00000000000000, 0.000000000000000, -1.29844571555150E-16 ) );
#264 = DIRECTION( '', ( -1.29844571555150E-16, 0.000000000000000, 1.00000000000000 ) );
#265 = SURFACE_STYLE_FILL_AREA( #343 );
#266 = ORIENTED_EDGE( '', *, *, #344, .F. );
#267 = ORIENTED_EDGE( '', *, *, #345, .F. );
#268 = ORIENTED_EDGE( '', *, *, #334, .T. );
#269 = ORIENTED_EDGE( '', *, *, #346, .T. );
#270 = CARTESIAN_POINT( '', ( 1.20500000000000, -500.000000000000, -0.785000000000000 ) );
#271 = DIRECTION( '', ( 1.34962926035540E-16, 0.000000000000000, -1.00000000000000 ) );
#272 = DIRECTION( '', ( -1.00000000000000, 0.000000000000000, -1.34962926035540E-16 ) );
#273 = SURFACE_STYLE_FILL_AREA( #347 );
#274 = ORIENTED_EDGE( '', *, *, #348, .F. );
#275 = ORIENTED_EDGE( '', *, *, #331, .F. );
#276 = ORIENTED_EDGE( '', *, *, #335, .T. );
#277 = ORIENTED_EDGE( '', *, *, #345, .T. );
#278 = CARTESIAN_POINT( '', ( 1.20500000000000, -500.000000000000, 0.785000000000000 ) );
#279 = DIRECTION( '', ( 1.00000000000000, 0.000000000000000, 1.38114926431274E-16 ) );
#280 = DIRECTION( '', ( 1.38114926431274E-16, 0.000000000000000, -1.00000000000000 ) );
#281 = SURFACE_STYLE_FILL_AREA( #349 );
#282 = ORIENTED_EDGE( '', *, *, #350, .F. );
#283 = ORIENTED_EDGE( '', *, *, #346, .F. );
#284 = ORIENTED_EDGE( '', *, *, #333, .T. );
#285 = ORIENTED_EDGE( '', *, *, #329, .T. );
#286 = CARTESIAN_POINT( '', ( -1.20500000000000, -500.000000000000, -0.785000000000000 ) );
#287 = DIRECTION( '', ( -1.00000000000000, 0.000000000000000, -1.38114926431274E-16 ) );
#288 = DIRECTION( '', ( -1.38114926431274E-16, 0.000000000000000, 1.00000000000000 ) );
#289 = SURFACE_STYLE_FILL_AREA( #351 );
#290 = ORIENTED_EDGE( '', *, *, #337, .F. );
#291 = ORIENTED_EDGE( '', *, *, #352, .F. );
#292 = ORIENTED_EDGE( '', *, *, #353, .T. );
#293 = ORIENTED_EDGE( '', *, *, #324, .T. );
#294 = CARTESIAN_POINT( '', ( 1.28000000000000, -500.100000000000, 0.835000000000000 ) );
#295 = DIRECTION( '', ( 1.00000000000000, 0.000000000000000, 1.29844571555150E-16 ) );
#296 = DIRECTION( '', ( 1.29844571555150E-16, 0.000000000000000, -1.00000000000000 ) );
#297 = SURFACE_STYLE_FILL_AREA( #354 );
#298 = ORIENTED_EDGE( '', *, *, #350, .T. );
#299 = ORIENTED_EDGE( '', *, *, #328, .T. );
#300 = ORIENTED_EDGE( '', *, *, #348, .T. );
#301 = ORIENTED_EDGE( '', *, *, #344, .T. );
#302 = CARTESIAN_POINT( '', ( -1.20500000000000, 500.000000000000, 0.785000000000000 ) );
#303 = DIRECTION( '', ( 0.000000000000000, 1.00000000000000, 0.000000000000000 ) );
#304 = DIRECTION( '', ( 0.000000000000000, 0.000000000000000, 1.00000000000000 ) );
#305 = SURFACE_STYLE_FILL_AREA( #355 );
#306 = ORIENTED_EDGE( '', *, *, #339, .F. );
#307 = ORIENTED_EDGE( '', *, *, #342, .F. );
#308 = ORIENTED_EDGE( '', *, *, #356, .T. );
#309 = ORIENTED_EDGE( '', *, *, #352, .T. );
#310 = CARTESIAN_POINT( '', ( -1.28000000000000, -500.100000000000, 0.835000000000000 ) );
#311 = DIRECTION( '', ( -1.69406589450860E-16, 0.000000000000000, 1.00000000000000 ) );
#312 = DIRECTION( '', ( 1.00000000000000, 0.000000000000000, 1.69406589450860E-16 ) );
#313 = SURFACE_STYLE_FILL_AREA( #357 );
#314 = ORIENTED_EDGE( '', *, *, #353, .F. );
#315 = ORIENTED_EDGE( '', *, *, #356, .F. );
#316 = ORIENTED_EDGE( '', *, *, #341, .F. );
#317 = ORIENTED_EDGE( '', *, *, #325, .F. );
#318 = CARTESIAN_POINT( '', ( 1.28000000000000, -500.100000000000, -0.835000000000000 ) );
#319 = DIRECTION( '', ( 0.000000000000000, 1.00000000000000, 0.000000000000000 ) );
#320 = DIRECTION( '', ( 0.000000000000000, 0.000000000000000, 1.00000000000000 ) );
#322 = FILL_AREA_STYLE( '', ( #358 ) );
#323 = EDGE_CURVE( '', #359, #360, #361, .T. );
#324 = EDGE_CURVE( '', #362, #359, #363, .T. );
#325 = EDGE_CURVE( '', #362, #364, #365, .T. );
#326 = EDGE_CURVE( '', #364, #360, #366, .T. );
#327 = FILL_AREA_STYLE( '', ( #367 ) );
#328 = EDGE_CURVE( '', #368, #369, #370, .T. );
#329 = EDGE_CURVE( '', #371, #368, #372, .T. );
#330 = EDGE_CURVE( '', #371, #373, #374, .T. );
#331 = EDGE_CURVE( '', #373, #369, #375, .T. );
#332 = FILL_AREA_STYLE( '', ( #376 ) );
#333 = EDGE_CURVE( '', #377, #371, #378, .T. );
#334 = EDGE_CURVE( '', #379, #377, #380, .T. );
#335 = EDGE_CURVE( '', #373, #379, #381, .T. );
#336 = FILL_AREA_STYLE( '', ( #382 ) );
#337 = EDGE_CURVE( '', #383, #359, #384, .T. );
#338 = EDGE_CURVE( '', #360, #385, #386, .T. );
#339 = EDGE_CURVE( '', #385, #383, #387, .T. );
#340 = FILL_AREA_STYLE( '', ( #388 ) );
#341 = EDGE_CURVE( '', #364, #389, #390, .T. );
#342 = EDGE_CURVE( '', #389, #385, #391, .T. );
#343 = FILL_AREA_STYLE( '', ( #392 ) );
#344 = EDGE_CURVE( '', #393, #394, #395, .T. );
#345 = EDGE_CURVE( '', #379, #393, #396, .T. );
#346 = EDGE_CURVE( '', #377, #394, #397, .T. );
#347 = FILL_AREA_STYLE( '', ( #398 ) );
#348 = EDGE_CURVE( '', #369, #393, #399, .T. );
#349 = FILL_AREA_STYLE( '', ( #400 ) );
#350 = EDGE_CURVE( '', #394, #368, #401, .T. );
#351 = FILL_AREA_STYLE( '', ( #402 ) );
#352 = EDGE_CURVE( '', #403, #383, #404, .T. );
#353 = EDGE_CURVE( '', #403, #362, #405, .T. );
#354 = FILL_AREA_STYLE( '', ( #406 ) );
#355 = FILL_AREA_STYLE( '', ( #407 ) );
#356 = EDGE_CURVE( '', #389, #403, #408, .T. );
#357 = FILL_AREA_STYLE( '', ( #409 ) );
#358 = FILL_AREA_STYLE_COLOUR( '', #410 );
#359 = VERTEX_POINT( '', #411 );
#360 = VERTEX_POINT( '', #412 );
#361 = LINE( '', #413, #414 );
#362 = VERTEX_POINT( '', #415 );
#363 = LINE( '', #416, #417 );
#364 = VERTEX_POINT( '', #418 );
#365 = LINE( '', #419, #420 );
#366 = LINE( '', #421, #422 );
#367 = FILL_AREA_STYLE_COLOUR( '', #423 );
#368 = VERTEX_POINT( '', #424 );
#369 = VERTEX_POINT( '', #425 );
#370 = LINE( '', #426, #427 );
#371 = VERTEX_POINT( '', #428 );
#372 = LINE( '', #429, #430 );
#373 = VERTEX_POINT( '', #431 );
#374 = LINE( '', #432, #433 );
#375 = LINE( '', #434, #435 );
#376 = FILL_AREA_STYLE_COLOUR( '', #436 );
#377 = VERTEX_POINT( '', #437 );
#378 = LINE( '', #438, #439 );
#379 = VERTEX_POINT( '', #440 );
#380 = LINE( '', #441, #442 );
#381 = LINE( '', #443, #444 );
#382 = FILL_AREA_STYLE_COLOUR( '', #445 );
#383 = VERTEX_POINT( '', #446 );
#384 = LINE( '', #447, #448 );
#385 = VERTEX_POINT( '', #449 );
#386 = LINE( '', #450, #451 );
#387 = LINE( '', #452, #453 );
#388 = FILL_AREA_STYLE_COLOUR( '', #454 );
#389 = VERTEX_POINT( '', #455 );
#390 = LINE( '', #456, #457 );
#391 = LINE( '', #458, #459 );
#392 = FILL_AREA_STYLE_COLOUR( '', #460 );
#393 = VERTEX_POINT( '', #461 );
#394 = VERTEX_POINT( '', #462 );
#395 = LINE( '', #463, #464 );
#396 = LINE( '', #465, #466 );
#397 = LINE( '', #467, #468 );
#398 = FILL_AREA_STYLE_COLOUR( '', #469 );
#399 = LINE( '', #470, #471 );
#400 = FILL_AREA_STYLE_COLOUR( '', #472 );
#401 = LINE( '', #473, #474 );
#402 = FILL_AREA_STYLE_COLOUR( '', #475 );
#403 = VERTEX_POINT( '', #476 );
#404 = LINE( '', #477, #478 );
#405 = LINE( '', #479, #480 );
#406 = FILL_AREA_STYLE_COLOUR( '', #481 );
#407 = FILL_AREA_STYLE_COLOUR( '', #482 );
#408 = LINE( '', #483, #484 );
#409 = FILL_AREA_STYLE_COLOUR( '', #485 );
#410 = COLOUR_RGB( '', 1.00000000000000, 1.00000000000000, 1.00000000000000 );
#411 = CARTESIAN_POINT( '', ( 1.28000000000000, 500.100000000000, -0.835000000000000 ) );
#412 = CARTESIAN_POINT( '', ( -1.28000000000000, 500.100000000000, -0.835000000000000 ) );
#413 = CARTESIAN_POINT( '', ( 1.28000000000000, 500.100000000000, -0.835000000000000 ) );
#414 = VECTOR( '', #486, 1000.00000000000 );
#415 = CARTESIAN_POINT( '', ( 1.28000000000000, -500.100000000000, -0.835000000000000 ) );
#416 = CARTESIAN_POINT( '', ( 1.28000000000000, -500.100000000000, -0.835000000000000 ) );
#417 = VECTOR( '', #487, 1000.00000000000 );
#418 = CARTESIAN_POINT( '', ( -1.28000000000000, -500.100000000000, -0.835000000000000 ) );
#419 = CARTESIAN_POINT( '', ( 1.28000000000000, -500.100000000000, -0.835000000000000 ) );
#420 = VECTOR( '', #488, 1000.00000000000 );
#421 = CARTESIAN_POINT( '', ( -1.28000000000000, -500.100000000000, -0.835000000000000 ) );
#422 = VECTOR( '', #489, 1000.00000000000 );
#423 = COLOUR_RGB( '', 0.750000000000000, 0.695399999600000, 0.555000007200000 );
#424 = CARTESIAN_POINT( '', ( -1.20500000000000, 500.000000000000, 0.785000000000000 ) );
#425 = CARTESIAN_POINT( '', ( 1.20500000000000, 500.000000000000, 0.785000000000000 ) );
#426 = CARTESIAN_POINT( '', ( -1.20500000000000, 500.000000000000, 0.785000000000000 ) );
#427 = VECTOR( '', #490, 1000.00000000000 );
#428 = CARTESIAN_POINT( '', ( -1.20500000000000, -500.000000000000, 0.785000000000000 ) );
#429 = CARTESIAN_POINT( '', ( -1.20500000000000, -500.000000000000, 0.785000000000000 ) );
#430 = VECTOR( '', #491, 1000.00000000000 );
#431 = CARTESIAN_POINT( '', ( 1.20500000000000, -500.000000000000, 0.785000000000000 ) );
#432 = CARTESIAN_POINT( '', ( -1.20500000000000, -500.000000000000, 0.785000000000000 ) );
#433 = VECTOR( '', #492, 1000.00000000000 );
#434 = CARTESIAN_POINT( '', ( 1.20500000000000, -500.000000000000, 0.785000000000000 ) );
#435 = VECTOR( '', #493, 1000.00000000000 );
#436 = COLOUR_RGB( '', 0.750000000000000, 0.695399999600000, 0.555000007200000 );
#437 = CARTESIAN_POINT( '', ( -1.20500000000000, -500.000000000000, -0.785000000000000 ) );
#438 = CARTESIAN_POINT( '', ( -1.20500000000000, -500.000000000000, -0.785000000000000 ) );
#439 = VECTOR( '', #494, 1000.00000000000 );
#440 = CARTESIAN_POINT( '', ( 1.20500000000000, -500.000000000000, -0.785000000000000 ) );
#441 = CARTESIAN_POINT( '', ( 1.20500000000000, -500.000000000000, -0.785000000000000 ) );
#442 = VECTOR( '', #495, 1000.00000000000 );
#443 = CARTESIAN_POINT( '', ( 1.20500000000000, -500.000000000000, 0.785000000000000 ) );
#444 = VECTOR( '', #496, 1000.00000000000 );
#445 = COLOUR_RGB( '', 1.00000000000000, 1.00000000000000, 1.00000000000000 );
#446 = CARTESIAN_POINT( '', ( 1.28000000000000, 500.100000000000, 0.835000000000000 ) );
#447 = CARTESIAN_POINT( '', ( 1.28000000000000, 500.100000000000, 0.835000000000000 ) );
#448 = VECTOR( '', #497, 1000.00000000000 );
#449 = CARTESIAN_POINT( '', ( -1.28000000000000, 500.100000000000, 0.835000000000000 ) );
#450 = CARTESIAN_POINT( '', ( -1.28000000000000, 500.100000000000, -0.835000000000000 ) );
#451 = VECTOR( '', #498, 1000.00000000000 );
#452 = CARTESIAN_POINT( '', ( -1.28000000000000, 500.100000000000, 0.835000000000000 ) );
#453 = VECTOR( '', #499, 1000.00000000000 );
#454 = COLOUR_RGB( '', 1.00000000000000, 1.00000000000000, 1.00000000000000 );
#455 = CARTESIAN_POINT( '', ( -1.28000000000000, -500.100000000000, 0.835000000000000 ) );
#456 = CARTESIAN_POINT( '', ( -1.28000000000000, -500.100000000000, -0.835000000000000 ) );
#457 = VECTOR( '', #500, 1000.00000000000 );
#458 = CARTESIAN_POINT( '', ( -1.28000000000000, -500.100000000000, 0.835000000000000 ) );
#459 = VECTOR( '', #501, 1000.00000000000 );
#460 = COLOUR_RGB( '', 0.750000000000000, 0.695399999600000, 0.555000007200000 );
#461 = CARTESIAN_POINT( '', ( 1.20500000000000, 500.000000000000, -0.785000000000000 ) );
#462 = CARTESIAN_POINT( '', ( -1.20500000000000, 500.000000000000, -0.785000000000000 ) );
#463 = CARTESIAN_POINT( '', ( 1.20500000000000, 500.000000000000, -0.785000000000000 ) );
#464 = VECTOR( '', #502, 1000.00000000000 );
#465 = CARTESIAN_POINT( '', ( 1.20500000000000, -500.000000000000, -0.785000000000000 ) );
#466 = VECTOR( '', #503, 1000.00000000000 );
#467 = CARTESIAN_POINT( '', ( -1.20500000000000, -500.000000000000, -0.785000000000000 ) );
#468 = VECTOR( '', #504, 1000.00000000000 );
#469 = COLOUR_RGB( '', 0.750000000000000, 0.695399999600000, 0.555000007200000 );
#470 = CARTESIAN_POINT( '', ( 1.20500000000000, 500.000000000000, 0.785000000000000 ) );
#471 = VECTOR( '', #505, 1000.00000000000 );
#472 = COLOUR_RGB( '', 0.750000000000000, 0.695399999600000, 0.555000007200000 );
#473 = CARTESIAN_POINT( '', ( -1.20500000000000, 500.000000000000, -0.785000000000000 ) );
#474 = VECTOR( '', #506, 1000.00000000000 );
#475 = COLOUR_RGB( '', 1.00000000000000, 1.00000000000000, 1.00000000000000 );
#476 = CARTESIAN_POINT( '', ( 1.28000000000000, -500.100000000000, 0.835000000000000 ) );
#477 = CARTESIAN_POINT( '', ( 1.28000000000000, -500.100000000000, 0.835000000000000 ) );
#478 = VECTOR( '', #507, 1000.00000000000 );
#479 = CARTESIAN_POINT( '', ( 1.28000000000000, -500.100000000000, 0.835000000000000 ) );
#480 = VECTOR( '', #508, 1000.00000000000 );
#481 = COLOUR_RGB( '', 0.750000000000000, 0.695399999600000, 0.555000007200000 );
#482 = COLOUR_RGB( '', 1.00000000000000, 1.00000000000000, 1.00000000000000 );
#483 = CARTESIAN_POINT( '', ( -1.28000000000000, -500.100000000000, 0.835000000000000 ) );
#484 = VECTOR( '', #509, 1000.00000000000 );
#485 = COLOUR_RGB( '', 1.00000000000000, 1.00000000000000, 1.00000000000000 );
#486 = DIRECTION( '', ( -1.00000000000000, 0.000000000000000, 0.000000000000000 ) );
#487 = DIRECTION( '', ( 0.000000000000000, 1.00000000000000, 0.000000000000000 ) );
#488 = DIRECTION( '', ( -1.00000000000000, 0.000000000000000, 0.000000000000000 ) );
#489 = DIRECTION( '', ( 0.000000000000000, 1.00000000000000, 0.000000000000000 ) );
#490 = DIRECTION( '', ( 1.00000000000000, 0.000000000000000, 4.49876420118466E-17 ) );
#491 = DIRECTION( '', ( 0.000000000000000, 1.00000000000000, 0.000000000000000 ) );
#492 = DIRECTION( '', ( 1.00000000000000, 0.000000000000000, 4.49876420118466E-17 ) );
#493 = DIRECTION( '', ( 0.000000000000000, 1.00000000000000, 0.000000000000000 ) );
#494 = DIRECTION( '', ( -1.38114926431274E-16, 0.000000000000000, 1.00000000000000 ) );
#495 = DIRECTION( '', ( -1.00000000000000, 0.000000000000000, -1.34962926035540E-16 ) );
#496 = DIRECTION( '', ( 1.38114926431274E-16, 0.000000000000000, -1.00000000000000 ) );
#497 = DIRECTION( '', ( 1.29844571555150E-16, 0.000000000000000, -1.00000000000000 ) );
#498 = DIRECTION( '', ( -1.29844571555150E-16, 0.000000000000000, 1.00000000000000 ) );
#499 = DIRECTION( '', ( 1.00000000000000, 0.000000000000000, 1.69406589450860E-16 ) );
#500 = DIRECTION( '', ( -1.29844571555150E-16, 0.000000000000000, 1.00000000000000 ) );
#501 = DIRECTION( '', ( 0.000000000000000, 1.00000000000000, 0.000000000000000 ) );
#502 = DIRECTION( '', ( -1.00000000000000, 0.000000000000000, -1.34962926035540E-16 ) );
#503 = DIRECTION( '', ( 0.000000000000000, 1.00000000000000, 0.000000000000000 ) );
#504 = DIRECTION( '', ( 0.000000000000000, 1.00000000000000, 0.000000000000000 ) );
#505 = DIRECTION( '', ( 1.38114926431274E-16, 0.000000000000000, -1.00000000000000 ) );
#506 = DIRECTION( '', ( -1.38114926431274E-16, 0.000000000000000, 1.00000000000000 ) );
#507 = DIRECTION( '', ( 0.000000000000000, 1.00000000000000, 0.000000000000000 ) );
#508 = DIRECTION( '', ( 1.29844571555150E-16, 0.000000000000000, -1.00000000000000 ) );
#509 = DIRECTION( '', ( 1.00000000000000, 0.000000000000000, 1.69406589450860E-16 ) );
ENDSEC;
END-ISO-10303-21;
