ISO-10303-21;
HEADER;
/* Generated by software containing ST-Developer
 * from STEP Tools, Inc. (www.steptools.com) 
 */
/* OPTION: strings as raw bytes, not using required /X/ escapes */

FILE_DESCRIPTION(
/* description */ ('Unknown'),
/* implementation_level */ '2;1');

FILE_NAME(
/* name */ '705820105',
/* time_stamp */ '2016-09-30T13:48:12+02:00',
/* author */ ('Unknown'),
/* organization */ ('Unknown'),
/* preprocessor_version */ 'ST-DEVELOPER v16.7',
/* originating_system */ 'DEX',
/* authorisation */ $);

FILE_SCHEMA (('AUTOMOTIVE_DESIGN {1 0 10303 214 3 1 1}'));
ENDSEC;

DATA;
#10=PROPERTY_DEFINITION_REPRESENTATION(#14,#12);
#11=PROPERTY_DEFINITION_REPRESENTATION(#15,#13);
#12=REPRESENTATION('',(#16),#605);
#13=REPRESENTATION('',(#17),#605);
#14=PROPERTY_DEFINITION('pmi validation property','',#610);
#15=PROPERTY_DEFINITION('pmi validation property','',#610);
#16=VALUE_REPRESENTATION_ITEM('number of annotations',COUNT_MEASURE(0.));
#17=VALUE_REPRESENTATION_ITEM('number of views',COUNT_MEASURE(0.));
#18=SHAPE_REPRESENTATION_RELATIONSHIP('','',#359,#19);
#19=ADVANCED_BREP_SHAPE_REPRESENTATION('',(#357),#605);
#20=PLANE('',#364);
#21=PLANE('',#374);
#22=PLANE('',#378);
#23=PLANE('',#388);
#24=PLANE('',#392);
#25=PLANE('',#396);
#26=PLANE('',#397);
#27=PLANE('',#398);
#28=LINE('',#510,#56);
#29=LINE('',#514,#57);
#30=LINE('',#516,#58);
#31=LINE('',#518,#59);
#32=LINE('',#520,#60);
#33=LINE('',#524,#61);
#34=LINE('',#530,#62);
#35=LINE('',#536,#63);
#36=LINE('',#540,#64);
#37=LINE('',#542,#65);
#38=LINE('',#544,#66);
#39=LINE('',#548,#67);
#40=LINE('',#552,#68);
#41=LINE('',#554,#69);
#42=LINE('',#556,#70);
#43=LINE('',#560,#71);
#44=LINE('',#566,#72);
#45=LINE('',#572,#73);
#46=LINE('',#576,#74);
#47=LINE('',#579,#75);
#48=LINE('',#581,#76);
#49=LINE('',#583,#77);
#50=LINE('',#587,#78);
#51=LINE('',#591,#79);
#52=LINE('',#593,#80);
#53=LINE('',#595,#81);
#54=LINE('',#600,#82);
#55=LINE('',#601,#83);
#56=VECTOR('',#405,1000.);
#57=VECTOR('',#408,1000.);
#58=VECTOR('',#411,1000.);
#59=VECTOR('',#412,1000.);
#60=VECTOR('',#413,1000.);
#61=VECTOR('',#418,1000.);
#62=VECTOR('',#425,1000.);
#63=VECTOR('',#432,1000.);
#64=VECTOR('',#437,1000.);
#65=VECTOR('',#438,1000.);
#66=VECTOR('',#439,1000.);
#67=VECTOR('',#444,1000.);
#68=VECTOR('',#449,1000.);
#69=VECTOR('',#450,1000.);
#70=VECTOR('',#451,1000.);
#71=VECTOR('',#456,1000.);
#72=VECTOR('',#463,1000.);
#73=VECTOR('',#470,1000.);
#74=VECTOR('',#475,1000.);
#75=VECTOR('',#476,1000.);
#76=VECTOR('',#477,1000.);
#77=VECTOR('',#478,1000.);
#78=VECTOR('',#483,1000.);
#79=VECTOR('',#488,1000.);
#80=VECTOR('',#489,1000.);
#81=VECTOR('',#490,1000.);
#82=VECTOR('',#499,1000.);
#83=VECTOR('',#500,1000.);
#84=ORIENTED_EDGE('',*,*,#180,.T.);
#85=ORIENTED_EDGE('',*,*,#181,.F.);
#86=ORIENTED_EDGE('',*,*,#182,.F.);
#87=ORIENTED_EDGE('',*,*,#183,.T.);
#88=ORIENTED_EDGE('',*,*,#184,.T.);
#89=ORIENTED_EDGE('',*,*,#185,.F.);
#90=ORIENTED_EDGE('',*,*,#186,.F.);
#91=ORIENTED_EDGE('',*,*,#181,.T.);
#92=ORIENTED_EDGE('',*,*,#187,.T.);
#93=ORIENTED_EDGE('',*,*,#188,.F.);
#94=ORIENTED_EDGE('',*,*,#189,.F.);
#95=ORIENTED_EDGE('',*,*,#185,.T.);
#96=ORIENTED_EDGE('',*,*,#190,.T.);
#97=ORIENTED_EDGE('',*,*,#191,.F.);
#98=ORIENTED_EDGE('',*,*,#192,.F.);
#99=ORIENTED_EDGE('',*,*,#188,.T.);
#100=ORIENTED_EDGE('',*,*,#193,.T.);
#101=ORIENTED_EDGE('',*,*,#194,.F.);
#102=ORIENTED_EDGE('',*,*,#195,.F.);
#103=ORIENTED_EDGE('',*,*,#191,.T.);
#104=ORIENTED_EDGE('',*,*,#196,.T.);
#105=ORIENTED_EDGE('',*,*,#197,.F.);
#106=ORIENTED_EDGE('',*,*,#198,.F.);
#107=ORIENTED_EDGE('',*,*,#194,.T.);
#108=ORIENTED_EDGE('',*,*,#199,.T.);
#109=ORIENTED_EDGE('',*,*,#200,.F.);
#110=ORIENTED_EDGE('',*,*,#201,.F.);
#111=ORIENTED_EDGE('',*,*,#197,.T.);
#112=ORIENTED_EDGE('',*,*,#202,.T.);
#113=ORIENTED_EDGE('',*,*,#203,.F.);
#114=ORIENTED_EDGE('',*,*,#204,.F.);
#115=ORIENTED_EDGE('',*,*,#200,.T.);
#116=ORIENTED_EDGE('',*,*,#205,.T.);
#117=ORIENTED_EDGE('',*,*,#206,.F.);
#118=ORIENTED_EDGE('',*,*,#207,.F.);
#119=ORIENTED_EDGE('',*,*,#203,.T.);
#120=ORIENTED_EDGE('',*,*,#208,.T.);
#121=ORIENTED_EDGE('',*,*,#209,.F.);
#122=ORIENTED_EDGE('',*,*,#210,.F.);
#123=ORIENTED_EDGE('',*,*,#206,.T.);
#124=ORIENTED_EDGE('',*,*,#211,.T.);
#125=ORIENTED_EDGE('',*,*,#212,.F.);
#126=ORIENTED_EDGE('',*,*,#213,.F.);
#127=ORIENTED_EDGE('',*,*,#209,.T.);
#128=ORIENTED_EDGE('',*,*,#214,.T.);
#129=ORIENTED_EDGE('',*,*,#215,.F.);
#130=ORIENTED_EDGE('',*,*,#216,.F.);
#131=ORIENTED_EDGE('',*,*,#217,.T.);
#132=ORIENTED_EDGE('',*,*,#218,.T.);
#133=ORIENTED_EDGE('',*,*,#219,.F.);
#134=ORIENTED_EDGE('',*,*,#220,.F.);
#135=ORIENTED_EDGE('',*,*,#215,.T.);
#136=ORIENTED_EDGE('',*,*,#221,.T.);
#137=ORIENTED_EDGE('',*,*,#222,.F.);
#138=ORIENTED_EDGE('',*,*,#223,.F.);
#139=ORIENTED_EDGE('',*,*,#219,.T.);
#140=ORIENTED_EDGE('',*,*,#224,.T.);
#141=ORIENTED_EDGE('',*,*,#217,.F.);
#142=ORIENTED_EDGE('',*,*,#225,.F.);
#143=ORIENTED_EDGE('',*,*,#222,.T.);
#144=ORIENTED_EDGE('',*,*,#226,.T.);
#145=ORIENTED_EDGE('',*,*,#183,.F.);
#146=ORIENTED_EDGE('',*,*,#227,.F.);
#147=ORIENTED_EDGE('',*,*,#212,.T.);
#148=ORIENTED_EDGE('',*,*,#216,.T.);
#149=ORIENTED_EDGE('',*,*,#220,.T.);
#150=ORIENTED_EDGE('',*,*,#223,.T.);
#151=ORIENTED_EDGE('',*,*,#225,.T.);
#152=ORIENTED_EDGE('',*,*,#182,.T.);
#153=ORIENTED_EDGE('',*,*,#186,.T.);
#154=ORIENTED_EDGE('',*,*,#189,.T.);
#155=ORIENTED_EDGE('',*,*,#192,.T.);
#156=ORIENTED_EDGE('',*,*,#195,.T.);
#157=ORIENTED_EDGE('',*,*,#198,.T.);
#158=ORIENTED_EDGE('',*,*,#201,.T.);
#159=ORIENTED_EDGE('',*,*,#204,.T.);
#160=ORIENTED_EDGE('',*,*,#207,.T.);
#161=ORIENTED_EDGE('',*,*,#210,.T.);
#162=ORIENTED_EDGE('',*,*,#213,.T.);
#163=ORIENTED_EDGE('',*,*,#227,.T.);
#164=ORIENTED_EDGE('',*,*,#214,.F.);
#165=ORIENTED_EDGE('',*,*,#224,.F.);
#166=ORIENTED_EDGE('',*,*,#221,.F.);
#167=ORIENTED_EDGE('',*,*,#218,.F.);
#168=ORIENTED_EDGE('',*,*,#180,.F.);
#169=ORIENTED_EDGE('',*,*,#226,.F.);
#170=ORIENTED_EDGE('',*,*,#211,.F.);
#171=ORIENTED_EDGE('',*,*,#208,.F.);
#172=ORIENTED_EDGE('',*,*,#205,.F.);
#173=ORIENTED_EDGE('',*,*,#202,.F.);
#174=ORIENTED_EDGE('',*,*,#199,.F.);
#175=ORIENTED_EDGE('',*,*,#196,.F.);
#176=ORIENTED_EDGE('',*,*,#193,.F.);
#177=ORIENTED_EDGE('',*,*,#190,.F.);
#178=ORIENTED_EDGE('',*,*,#187,.F.);
#179=ORIENTED_EDGE('',*,*,#184,.F.);
#180=EDGE_CURVE('',#228,#229,#260,.T.);
#181=EDGE_CURVE('',#230,#229,#28,.T.);
#182=EDGE_CURVE('',#231,#230,#261,.T.);
#183=EDGE_CURVE('',#231,#228,#29,.T.);
#184=EDGE_CURVE('',#229,#232,#30,.T.);
#185=EDGE_CURVE('',#233,#232,#31,.T.);
#186=EDGE_CURVE('',#230,#233,#32,.T.);
#187=EDGE_CURVE('',#232,#234,#262,.T.);
#188=EDGE_CURVE('',#235,#234,#33,.T.);
#189=EDGE_CURVE('',#233,#235,#263,.T.);
#190=EDGE_CURVE('',#234,#236,#264,.T.);
#191=EDGE_CURVE('',#237,#236,#34,.T.);
#192=EDGE_CURVE('',#235,#237,#265,.T.);
#193=EDGE_CURVE('',#236,#238,#266,.T.);
#194=EDGE_CURVE('',#239,#238,#35,.T.);
#195=EDGE_CURVE('',#237,#239,#267,.T.);
#196=EDGE_CURVE('',#238,#240,#36,.T.);
#197=EDGE_CURVE('',#241,#240,#37,.T.);
#198=EDGE_CURVE('',#239,#241,#38,.T.);
#199=EDGE_CURVE('',#240,#242,#268,.T.);
#200=EDGE_CURVE('',#243,#242,#39,.T.);
#201=EDGE_CURVE('',#241,#243,#269,.T.);
#202=EDGE_CURVE('',#242,#244,#40,.T.);
#203=EDGE_CURVE('',#245,#244,#41,.T.);
#204=EDGE_CURVE('',#243,#245,#42,.T.);
#205=EDGE_CURVE('',#244,#246,#270,.T.);
#206=EDGE_CURVE('',#247,#246,#43,.T.);
#207=EDGE_CURVE('',#245,#247,#271,.T.);
#208=EDGE_CURVE('',#246,#248,#272,.T.);
#209=EDGE_CURVE('',#249,#248,#44,.T.);
#210=EDGE_CURVE('',#247,#249,#273,.T.);
#211=EDGE_CURVE('',#248,#250,#274,.T.);
#212=EDGE_CURVE('',#251,#250,#45,.T.);
#213=EDGE_CURVE('',#249,#251,#275,.T.);
#214=EDGE_CURVE('',#252,#253,#46,.T.);
#215=EDGE_CURVE('',#254,#253,#47,.T.);
#216=EDGE_CURVE('',#255,#254,#48,.T.);
#217=EDGE_CURVE('',#255,#252,#49,.T.);
#218=EDGE_CURVE('',#253,#256,#276,.T.);
#219=EDGE_CURVE('',#257,#256,#50,.T.);
#220=EDGE_CURVE('',#254,#257,#277,.T.);
#221=EDGE_CURVE('',#256,#258,#51,.T.);
#222=EDGE_CURVE('',#259,#258,#52,.T.);
#223=EDGE_CURVE('',#257,#259,#53,.T.);
#224=EDGE_CURVE('',#258,#252,#278,.T.);
#225=EDGE_CURVE('',#259,#255,#279,.T.);
#226=EDGE_CURVE('',#250,#228,#54,.T.);
#227=EDGE_CURVE('',#251,#231,#55,.T.);
#228=VERTEX_POINT('',#508);
#229=VERTEX_POINT('',#509);
#230=VERTEX_POINT('',#511);
#231=VERTEX_POINT('',#513);
#232=VERTEX_POINT('',#517);
#233=VERTEX_POINT('',#519);
#234=VERTEX_POINT('',#523);
#235=VERTEX_POINT('',#525);
#236=VERTEX_POINT('',#529);
#237=VERTEX_POINT('',#531);
#238=VERTEX_POINT('',#535);
#239=VERTEX_POINT('',#537);
#240=VERTEX_POINT('',#541);
#241=VERTEX_POINT('',#543);
#242=VERTEX_POINT('',#547);
#243=VERTEX_POINT('',#549);
#244=VERTEX_POINT('',#553);
#245=VERTEX_POINT('',#555);
#246=VERTEX_POINT('',#559);
#247=VERTEX_POINT('',#561);
#248=VERTEX_POINT('',#565);
#249=VERTEX_POINT('',#567);
#250=VERTEX_POINT('',#571);
#251=VERTEX_POINT('',#573);
#252=VERTEX_POINT('',#577);
#253=VERTEX_POINT('',#578);
#254=VERTEX_POINT('',#580);
#255=VERTEX_POINT('',#582);
#256=VERTEX_POINT('',#586);
#257=VERTEX_POINT('',#588);
#258=VERTEX_POINT('',#592);
#259=VERTEX_POINT('',#594);
#260=CIRCLE('',#362,0.5);
#261=CIRCLE('',#363,0.5);
#262=CIRCLE('',#366,0.17971797554616);
#263=CIRCLE('',#367,0.17971797554616);
#264=CIRCLE('',#369,2.25);
#265=CIRCLE('',#370,2.25);
#266=CIRCLE('',#372,0.2);
#267=CIRCLE('',#373,0.2);
#268=CIRCLE('',#376,0.5);
#269=CIRCLE('',#377,0.5);
#270=CIRCLE('',#380,0.2);
#271=CIRCLE('',#381,0.2);
#272=CIRCLE('',#383,2.25);
#273=CIRCLE('',#384,2.25);
#274=CIRCLE('',#386,0.17971797554616);
#275=CIRCLE('',#387,0.17971797554616);
#276=CIRCLE('',#390,0.4);
#277=CIRCLE('',#391,0.4);
#278=CIRCLE('',#394,0.4);
#279=CIRCLE('',#395,0.4);
#280=EDGE_LOOP('',(#84,#85,#86,#87));
#281=EDGE_LOOP('',(#88,#89,#90,#91));
#282=EDGE_LOOP('',(#92,#93,#94,#95));
#283=EDGE_LOOP('',(#96,#97,#98,#99));
#284=EDGE_LOOP('',(#100,#101,#102,#103));
#285=EDGE_LOOP('',(#104,#105,#106,#107));
#286=EDGE_LOOP('',(#108,#109,#110,#111));
#287=EDGE_LOOP('',(#112,#113,#114,#115));
#288=EDGE_LOOP('',(#116,#117,#118,#119));
#289=EDGE_LOOP('',(#120,#121,#122,#123));
#290=EDGE_LOOP('',(#124,#125,#126,#127));
#291=EDGE_LOOP('',(#128,#129,#130,#131));
#292=EDGE_LOOP('',(#132,#133,#134,#135));
#293=EDGE_LOOP('',(#136,#137,#138,#139));
#294=EDGE_LOOP('',(#140,#141,#142,#143));
#295=EDGE_LOOP('',(#144,#145,#146,#147));
#296=EDGE_LOOP('',(#148,#149,#150,#151));
#297=EDGE_LOOP('',(#152,#153,#154,#155,#156,#157,#158,#159,#160,#161,#162,
#163));
#298=EDGE_LOOP('',(#164,#165,#166,#167));
#299=EDGE_LOOP('',(#168,#169,#170,#171,#172,#173,#174,#175,#176,#177,#178,
#179));
#300=FACE_BOUND('',#280,.T.);
#301=FACE_BOUND('',#281,.T.);
#302=FACE_BOUND('',#282,.T.);
#303=FACE_BOUND('',#283,.T.);
#304=FACE_BOUND('',#284,.T.);
#305=FACE_BOUND('',#285,.T.);
#306=FACE_BOUND('',#286,.T.);
#307=FACE_BOUND('',#287,.T.);
#308=FACE_BOUND('',#288,.T.);
#309=FACE_BOUND('',#289,.T.);
#310=FACE_BOUND('',#290,.T.);
#311=FACE_BOUND('',#291,.T.);
#312=FACE_BOUND('',#292,.T.);
#313=FACE_BOUND('',#293,.T.);
#314=FACE_BOUND('',#294,.T.);
#315=FACE_BOUND('',#295,.T.);
#316=FACE_BOUND('',#296,.T.);
#317=FACE_BOUND('',#297,.T.);
#318=FACE_BOUND('',#298,.T.);
#319=FACE_BOUND('',#299,.T.);
#320=CYLINDRICAL_SURFACE('',#361,0.5);
#321=CYLINDRICAL_SURFACE('',#365,0.17971797554616);
#322=CYLINDRICAL_SURFACE('',#368,2.25);
#323=CYLINDRICAL_SURFACE('',#371,0.2);
#324=CYLINDRICAL_SURFACE('',#375,0.5);
#325=CYLINDRICAL_SURFACE('',#379,0.2);
#326=CYLINDRICAL_SURFACE('',#382,2.25);
#327=CYLINDRICAL_SURFACE('',#385,0.17971797554616);
#328=CYLINDRICAL_SURFACE('',#389,0.4);
#329=CYLINDRICAL_SURFACE('',#393,0.4);
#330=ADVANCED_FACE('',(#300),#320,.F.);
#331=ADVANCED_FACE('',(#301),#20,.F.);
#332=ADVANCED_FACE('',(#302),#321,.T.);
#333=ADVANCED_FACE('',(#303),#322,.T.);
#334=ADVANCED_FACE('',(#304),#323,.T.);
#335=ADVANCED_FACE('',(#305),#21,.F.);
#336=ADVANCED_FACE('',(#306),#324,.F.);
#337=ADVANCED_FACE('',(#307),#22,.F.);
#338=ADVANCED_FACE('',(#308),#325,.T.);
#339=ADVANCED_FACE('',(#309),#326,.T.);
#340=ADVANCED_FACE('',(#310),#327,.T.);
#341=ADVANCED_FACE('',(#311),#23,.F.);
#342=ADVANCED_FACE('',(#312),#328,.F.);
#343=ADVANCED_FACE('',(#313),#24,.F.);
#344=ADVANCED_FACE('',(#314),#329,.F.);
#345=ADVANCED_FACE('',(#315),#25,.F.);
#346=ADVANCED_FACE('',(#316,#317),#26,.F.);
#347=ADVANCED_FACE('',(#318,#319),#27,.T.);
#348=CLOSED_SHELL('',(#330,#331,#332,#333,#334,#335,#336,#337,#338,#339,
#340,#341,#342,#343,#344,#345,#346,#347));
#349=STYLED_ITEM('',(#350),#357);
#350=PRESENTATION_STYLE_ASSIGNMENT((#351));
#351=SURFACE_STYLE_USAGE(.BOTH.,#352);
#352=SURFACE_SIDE_STYLE('',(#353));
#353=SURFACE_STYLE_FILL_AREA(#354);
#354=FILL_AREA_STYLE('',(#355));
#355=FILL_AREA_STYLE_COLOUR('',#356);
#356=COLOUR_RGB('',0.645180702209473,0.678915679454803,0.699999988079071);
#357=MANIFOLD_SOLID_BREP('',#348);
#358=SHAPE_DEFINITION_REPRESENTATION(#610,#359);
#359=SHAPE_REPRESENTATION('705820105',(#360),#605);
#360=AXIS2_PLACEMENT_3D('',#505,#399,#400);
#361=AXIS2_PLACEMENT_3D('',#506,#401,#402);
#362=AXIS2_PLACEMENT_3D('',#507,#403,#404);
#363=AXIS2_PLACEMENT_3D('',#512,#406,#407);
#364=AXIS2_PLACEMENT_3D('',#515,#409,#410);
#365=AXIS2_PLACEMENT_3D('',#521,#414,#415);
#366=AXIS2_PLACEMENT_3D('',#522,#416,#417);
#367=AXIS2_PLACEMENT_3D('',#526,#419,#420);
#368=AXIS2_PLACEMENT_3D('',#527,#421,#422);
#369=AXIS2_PLACEMENT_3D('',#528,#423,#424);
#370=AXIS2_PLACEMENT_3D('',#532,#426,#427);
#371=AXIS2_PLACEMENT_3D('',#533,#428,#429);
#372=AXIS2_PLACEMENT_3D('',#534,#430,#431);
#373=AXIS2_PLACEMENT_3D('',#538,#433,#434);
#374=AXIS2_PLACEMENT_3D('',#539,#435,#436);
#375=AXIS2_PLACEMENT_3D('',#545,#440,#441);
#376=AXIS2_PLACEMENT_3D('',#546,#442,#443);
#377=AXIS2_PLACEMENT_3D('',#550,#445,#446);
#378=AXIS2_PLACEMENT_3D('',#551,#447,#448);
#379=AXIS2_PLACEMENT_3D('',#557,#452,#453);
#380=AXIS2_PLACEMENT_3D('',#558,#454,#455);
#381=AXIS2_PLACEMENT_3D('',#562,#457,#458);
#382=AXIS2_PLACEMENT_3D('',#563,#459,#460);
#383=AXIS2_PLACEMENT_3D('',#564,#461,#462);
#384=AXIS2_PLACEMENT_3D('',#568,#464,#465);
#385=AXIS2_PLACEMENT_3D('',#569,#466,#467);
#386=AXIS2_PLACEMENT_3D('',#570,#468,#469);
#387=AXIS2_PLACEMENT_3D('',#574,#471,#472);
#388=AXIS2_PLACEMENT_3D('',#575,#473,#474);
#389=AXIS2_PLACEMENT_3D('',#584,#479,#480);
#390=AXIS2_PLACEMENT_3D('',#585,#481,#482);
#391=AXIS2_PLACEMENT_3D('',#589,#484,#485);
#392=AXIS2_PLACEMENT_3D('',#590,#486,#487);
#393=AXIS2_PLACEMENT_3D('',#596,#491,#492);
#394=AXIS2_PLACEMENT_3D('',#597,#493,#494);
#395=AXIS2_PLACEMENT_3D('',#598,#495,#496);
#396=AXIS2_PLACEMENT_3D('',#599,#497,#498);
#397=AXIS2_PLACEMENT_3D('',#602,#501,#502);
#398=AXIS2_PLACEMENT_3D('',#603,#503,#504);
#399=DIRECTION('',(0.,0.,1.));
#400=DIRECTION('',(1.,0.,0.));
#401=DIRECTION('',(0.,0.,-1.));
#402=DIRECTION('',(-1.,0.,0.));
#403=DIRECTION('',(0.,0.,-1.));
#404=DIRECTION('',(1.,0.,0.));
#405=DIRECTION('',(0.,0.,-1.));
#406=DIRECTION('',(0.,0.,-1.));
#407=DIRECTION('',(1.,0.,0.));
#408=DIRECTION('',(0.,0.,-1.));
#409=DIRECTION('',(-1.,0.,0.));
#410=DIRECTION('',(0.,0.,1.));
#411=DIRECTION('',(0.,1.,0.));
#412=DIRECTION('',(0.,0.,-1.));
#413=DIRECTION('',(0.,1.,0.));
#414=DIRECTION('',(0.,0.,-1.));
#415=DIRECTION('',(-1.,0.,0.));
#416=DIRECTION('',(0.,0.,1.));
#417=DIRECTION('',(1.,0.,0.));
#418=DIRECTION('',(0.,0.,-1.));
#419=DIRECTION('',(0.,0.,1.));
#420=DIRECTION('',(1.,0.,0.));
#421=DIRECTION('',(0.,0.,-1.));
#422=DIRECTION('',(-1.,0.,0.));
#423=DIRECTION('',(0.,0.,1.));
#424=DIRECTION('',(1.,0.,0.));
#425=DIRECTION('',(0.,0.,-1.));
#426=DIRECTION('',(0.,0.,1.));
#427=DIRECTION('',(1.,0.,0.));
#428=DIRECTION('',(0.,0.,-1.));
#429=DIRECTION('',(-1.,0.,0.));
#430=DIRECTION('',(0.,0.,1.));
#431=DIRECTION('',(-1.,0.,0.));
#432=DIRECTION('',(0.,0.,-1.));
#433=DIRECTION('',(0.,0.,1.));
#434=DIRECTION('',(-1.,0.,0.));
#435=DIRECTION('',(-1.,-8.07717902376557E-16,0.));
#436=DIRECTION('',(8.07717902376557E-16,-1.,0.));
#437=DIRECTION('',(-8.07717902376557E-16,1.,0.));
#438=DIRECTION('',(0.,0.,-1.));
#439=DIRECTION('',(-8.07717902376557E-16,1.,0.));
#440=DIRECTION('',(0.,0.,-1.));
#441=DIRECTION('',(-1.,0.,0.));
#442=DIRECTION('',(0.,0.,-1.));
#443=DIRECTION('',(-1.,0.,0.));
#444=DIRECTION('',(0.,0.,-1.));
#445=DIRECTION('',(0.,0.,-1.));
#446=DIRECTION('',(-1.,0.,0.));
#447=DIRECTION('',(1.,4.84630741425934E-16,0.));
#448=DIRECTION('',(-4.84630741425935E-16,1.,0.));
#449=DIRECTION('',(4.84630741425935E-16,-1.,0.));
#450=DIRECTION('',(0.,0.,-1.));
#451=DIRECTION('',(4.84630741425935E-16,-1.,0.));
#452=DIRECTION('',(0.,0.,-1.));
#453=DIRECTION('',(-1.,0.,0.));
#454=DIRECTION('',(0.,0.,1.));
#455=DIRECTION('',(1.,0.,0.));
#456=DIRECTION('',(0.,0.,-1.));
#457=DIRECTION('',(0.,0.,1.));
#458=DIRECTION('',(1.,0.,0.));
#459=DIRECTION('',(0.,0.,-1.));
#460=DIRECTION('',(-1.,0.,0.));
#461=DIRECTION('',(0.,0.,1.));
#462=DIRECTION('',(-1.,0.,0.));
#463=DIRECTION('',(0.,0.,-1.));
#464=DIRECTION('',(0.,0.,1.));
#465=DIRECTION('',(-1.,0.,0.));
#466=DIRECTION('',(0.,0.,-1.));
#467=DIRECTION('',(-1.,0.,0.));
#468=DIRECTION('',(0.,0.,1.));
#469=DIRECTION('',(1.,0.,0.));
#470=DIRECTION('',(0.,0.,-1.));
#471=DIRECTION('',(0.,0.,1.));
#472=DIRECTION('',(1.,0.,0.));
#473=DIRECTION('',(1.23204792327898E-16,-1.,0.));
#474=DIRECTION('',(1.,1.23204792327898E-16,0.));
#475=DIRECTION('',(-1.,-1.23204792327898E-16,0.));
#476=DIRECTION('',(0.,0.,-1.));
#477=DIRECTION('',(-1.,-1.23204792327898E-16,0.));
#478=DIRECTION('',(0.,0.,-1.));
#479=DIRECTION('',(0.,0.,-1.));
#480=DIRECTION('',(-1.,0.,0.));
#481=DIRECTION('',(0.,0.,-1.));
#482=DIRECTION('',(1.,0.,0.));
#483=DIRECTION('',(0.,0.,-1.));
#484=DIRECTION('',(0.,0.,-1.));
#485=DIRECTION('',(1.,0.,0.));
#486=DIRECTION('',(-1.23204792327898E-16,1.,0.));
#487=DIRECTION('',(-1.,-1.23204792327898E-16,0.));
#488=DIRECTION('',(1.,1.23204792327898E-16,0.));
#489=DIRECTION('',(0.,0.,-1.));
#490=DIRECTION('',(1.,1.23204792327898E-16,0.));
#491=DIRECTION('',(0.,0.,-1.));
#492=DIRECTION('',(-1.,0.,0.));
#493=DIRECTION('',(0.,0.,-1.));
#494=DIRECTION('',(-1.,0.,0.));
#495=DIRECTION('',(0.,0.,-1.));
#496=DIRECTION('',(-1.,0.,0.));
#497=DIRECTION('',(1.,-1.61543580475312E-16,0.));
#498=DIRECTION('',(1.61543580475312E-16,1.,0.));
#499=DIRECTION('',(-1.61543580475312E-16,-1.,0.));
#500=DIRECTION('',(-1.61543580475312E-16,-1.,0.));
#501=DIRECTION('',(0.,0.,-1.));
#502=DIRECTION('',(-1.,0.,0.));
#503=DIRECTION('',(0.,0.,-1.));
#504=DIRECTION('',(-1.,0.,0.));
#505=CARTESIAN_POINT('',(0.,0.,0.));
#506=CARTESIAN_POINT('',(0.,1.28436661875399,5.25));
#507=CARTESIAN_POINT('',(0.,1.28436661875399,-5.25));
#508=CARTESIAN_POINT('',(0.5,1.28436661875399,-5.25));
#509=CARTESIAN_POINT('',(-0.5,1.28436661875399,-5.25));
#510=CARTESIAN_POINT('',(-0.5,1.28436661875399,5.25));
#511=CARTESIAN_POINT('',(-0.5,1.28436661875399,5.25));
#512=CARTESIAN_POINT('',(0.,1.28436661875399,5.25));
#513=CARTESIAN_POINT('',(0.5,1.28436661875399,5.25));
#514=CARTESIAN_POINT('',(0.5,1.28436661875399,5.25));
#515=CARTESIAN_POINT('',(-0.5,1.28436661875399,5.25));
#516=CARTESIAN_POINT('',(-0.5,1.28436661875399,-5.25));
#517=CARTESIAN_POINT('',(-0.5,1.95551812430775,-5.25));
#518=CARTESIAN_POINT('',(-0.5,1.95551812430775,5.25));
#519=CARTESIAN_POINT('',(-0.5,1.95551812430775,5.25));
#520=CARTESIAN_POINT('',(-0.5,1.28436661875399,5.25));
#521=CARTESIAN_POINT('',(-0.67971797554616,1.95551812430775,5.25));
#522=CARTESIAN_POINT('',(-0.67971797554616,1.95551812430775,-5.25));
#523=CARTESIAN_POINT('',(-0.738723240077555,2.12527362345871,-5.25));
#524=CARTESIAN_POINT('',(-0.738723240077555,2.12527362345871,5.25));
#525=CARTESIAN_POINT('',(-0.738723240077555,2.12527362345871,5.25));
#526=CARTESIAN_POINT('',(-0.67971797554616,1.95551812430775,5.25));
#527=CARTESIAN_POINT('',(0.,0.,5.25));
#528=CARTESIAN_POINT('',(0.,0.,-5.25));
#529=CARTESIAN_POINT('',(-0.76829268292683,-2.11476390014609,-5.25));
#530=CARTESIAN_POINT('',(-0.76829268292683,-2.11476390014609,5.25));
#531=CARTESIAN_POINT('',(-0.76829268292683,-2.11476390014609,5.25));
#532=CARTESIAN_POINT('',(0.,0.,5.25));
#533=CARTESIAN_POINT('',(-0.699999999999999,-1.92678488679977,5.25));
#534=CARTESIAN_POINT('',(-0.699999999999999,-1.92678488679977,-5.25));
#535=CARTESIAN_POINT('',(-0.499999999999999,-1.92678488679977,-5.25));
#536=CARTESIAN_POINT('',(-0.499999999999999,-1.92678488679977,5.25));
#537=CARTESIAN_POINT('',(-0.499999999999999,-1.92678488679977,5.25));
#538=CARTESIAN_POINT('',(-0.699999999999999,-1.92678488679977,5.25));
#539=CARTESIAN_POINT('',(-0.5,-1.25563338124601,5.25));
#540=CARTESIAN_POINT('',(-0.5,-1.25563338124601,-5.25));
#541=CARTESIAN_POINT('',(-0.5,-1.25563338124601,-5.25));
#542=CARTESIAN_POINT('',(-0.5,-1.25563338124601,5.25));
#543=CARTESIAN_POINT('',(-0.5,-1.25563338124601,5.25));
#544=CARTESIAN_POINT('',(-0.5,-1.25563338124601,5.25));
#545=CARTESIAN_POINT('',(0.,-1.25563338124601,5.25));
#546=CARTESIAN_POINT('',(0.,-1.25563338124601,-5.25));
#547=CARTESIAN_POINT('',(0.5,-1.25563338124601,-5.25));
#548=CARTESIAN_POINT('',(0.5,-1.25563338124601,5.25));
#549=CARTESIAN_POINT('',(0.5,-1.25563338124601,5.25));
#550=CARTESIAN_POINT('',(0.,-1.25563338124601,5.25));
#551=CARTESIAN_POINT('',(0.5,-1.25563338124601,5.25));
#552=CARTESIAN_POINT('',(0.5,-1.25563338124601,-5.25));
#553=CARTESIAN_POINT('',(0.5,-1.92678488679977,-5.25));
#554=CARTESIAN_POINT('',(0.5,-1.92678488679977,5.25));
#555=CARTESIAN_POINT('',(0.5,-1.92678488679977,5.25));
#556=CARTESIAN_POINT('',(0.5,-1.25563338124601,5.25));
#557=CARTESIAN_POINT('',(0.7,-1.92678488679977,5.25));
#558=CARTESIAN_POINT('',(0.7,-1.92678488679977,-5.25));
#559=CARTESIAN_POINT('',(0.76829268292683,-2.11476390014609,-5.25));
#560=CARTESIAN_POINT('',(0.76829268292683,-2.11476390014609,5.25));
#561=CARTESIAN_POINT('',(0.76829268292683,-2.11476390014609,5.25));
#562=CARTESIAN_POINT('',(0.7,-1.92678488679977,5.25));
#563=CARTESIAN_POINT('',(0.,0.,5.25));
#564=CARTESIAN_POINT('',(0.,0.,-5.25));
#565=CARTESIAN_POINT('',(0.738723240077556,2.12527362345871,-5.25));
#566=CARTESIAN_POINT('',(0.738723240077556,2.12527362345871,5.25));
#567=CARTESIAN_POINT('',(0.738723240077556,2.12527362345871,5.25));
#568=CARTESIAN_POINT('',(0.,0.,5.25));
#569=CARTESIAN_POINT('',(0.67971797554616,1.95551812430775,5.25));
#570=CARTESIAN_POINT('',(0.67971797554616,1.95551812430775,-5.25));
#571=CARTESIAN_POINT('',(0.5,1.95551812430775,-5.25));
#572=CARTESIAN_POINT('',(0.5,1.95551812430775,5.25));
#573=CARTESIAN_POINT('',(0.5,1.95551812430775,5.25));
#574=CARTESIAN_POINT('',(0.67971797554616,1.95551812430775,5.25));
#575=CARTESIAN_POINT('',(1.1,-0.4,5.25));
#576=CARTESIAN_POINT('',(1.1,-0.4,-5.25));
#577=CARTESIAN_POINT('',(1.1,-0.4,-5.25));
#578=CARTESIAN_POINT('',(-1.1,-0.4,-5.25));
#579=CARTESIAN_POINT('',(-1.1,-0.4,5.25));
#580=CARTESIAN_POINT('',(-1.1,-0.4,5.25));
#581=CARTESIAN_POINT('',(1.1,-0.4,5.25));
#582=CARTESIAN_POINT('',(1.1,-0.4,5.25));
#583=CARTESIAN_POINT('',(1.1,-0.4,5.25));
#584=CARTESIAN_POINT('',(-1.1,0.,5.25));
#585=CARTESIAN_POINT('',(-1.1,0.,-5.25));
#586=CARTESIAN_POINT('',(-1.1,0.4,-5.25));
#587=CARTESIAN_POINT('',(-1.1,0.4,5.25));
#588=CARTESIAN_POINT('',(-1.1,0.4,5.25));
#589=CARTESIAN_POINT('',(-1.1,0.,5.25));
#590=CARTESIAN_POINT('',(-1.1,0.4,5.25));
#591=CARTESIAN_POINT('',(-1.1,0.4,-5.25));
#592=CARTESIAN_POINT('',(1.1,0.4,-5.25));
#593=CARTESIAN_POINT('',(1.1,0.4,5.25));
#594=CARTESIAN_POINT('',(1.1,0.4,5.25));
#595=CARTESIAN_POINT('',(-1.1,0.4,5.25));
#596=CARTESIAN_POINT('',(1.1,0.,5.25));
#597=CARTESIAN_POINT('',(1.1,0.,-5.25));
#598=CARTESIAN_POINT('',(1.1,0.,5.25));
#599=CARTESIAN_POINT('',(0.5,1.28436661875399,5.25));
#600=CARTESIAN_POINT('',(0.5,1.28436661875399,-5.25));
#601=CARTESIAN_POINT('',(0.5,1.28436661875399,5.25));
#602=CARTESIAN_POINT('',(0.,1.28436661875399,5.25));
#603=CARTESIAN_POINT('',(0.,1.28436661875399,-5.25));
#604=MECHANICAL_DESIGN_GEOMETRIC_PRESENTATION_REPRESENTATION('',(#349),
#605);
#605=(
GEOMETRIC_REPRESENTATION_CONTEXT(3)
GLOBAL_UNCERTAINTY_ASSIGNED_CONTEXT((#606))
GLOBAL_UNIT_ASSIGNED_CONTEXT((#609,#608,#607))
REPRESENTATION_CONTEXT('705820105','TOP_LEVEL_ASSEMBLY_PART')
);
#606=UNCERTAINTY_MEASURE_WITH_UNIT(LENGTH_MEASURE(0.005),#609,
'DISTANCE_ACCURACY_VALUE','Maximum Tolerance applied to model');
#607=(
NAMED_UNIT(*)
SI_UNIT($,.STERADIAN.)
SOLID_ANGLE_UNIT()
);
#608=(
NAMED_UNIT(*)
PLANE_ANGLE_UNIT()
SI_UNIT($,.RADIAN.)
);
#609=(
LENGTH_UNIT()
NAMED_UNIT(*)
SI_UNIT(.MILLI.,.METRE.)
);
#610=PRODUCT_DEFINITION_SHAPE('','',#611);
#611=PRODUCT_DEFINITION('','',#613,#612);
#612=PRODUCT_DEFINITION_CONTEXT('',#619,'design');
#613=PRODUCT_DEFINITION_FORMATION_WITH_SPECIFIED_SOURCE('','',#615,
 .NOT_KNOWN.);
#614=PRODUCT_RELATED_PRODUCT_CATEGORY('','',(#615));
#615=PRODUCT('705820105','705820105','705820105',(#617));
#616=PRODUCT_CATEGORY('','');
#617=PRODUCT_CONTEXT('',#619,'mechanical');
#618=APPLICATION_PROTOCOL_DEFINITION('international standard',
'automotive_design',2010,#619);
#619=APPLICATION_CONTEXT(
'core data for automotive mechanical design processes');
ENDSEC;
END-ISO-10303-21;
