ISO-10303-21;
HEADER;
/* Generated by software containing ST-Developer
 * from STEP Tools, Inc. (www.steptools.com) 
 */
/* OPTION: strings as raw bytes, not using required /X/ escapes */

FILE_DESCRIPTION(
/* description */ ('Unknown'),
/* implementation_level */ '2;1');

FILE_NAME(
/* name */ '500911500',
/* time_stamp */ '2019-01-04T11:41:37+01:00',
/* author */ ('Unknown'),
/* organization */ ('Unknown'),
/* preprocessor_version */ 'ST-DEVELOPER v16.7',
/* originating_system */ 'DEX',
/* authorisation */ $);

FILE_SCHEMA (('AUTOMOTIVE_DESIGN {1 0 10303 214 3 1 1}'));
ENDSEC;

DATA;
#10=PROPERTY_DEFINITION_REPRESENTATION(#14,#12);
#11=PROPERTY_DEFINITION_REPRESENTATION(#15,#13);
#12=REPRESENTATION('',(#16),#601);
#13=REPRESENTATION('',(#17),#601);
#14=PROPERTY_DEFINITION('pmi validation property','',#606);
#15=PROPERTY_DEFINITION('pmi validation property','',#606);
#16=VALUE_REPRESENTATION_ITEM('number of annotations',COUNT_MEASURE(0.));
#17=VALUE_REPRESENTATION_ITEM('number of views',COUNT_MEASURE(0.));
#18=SHAPE_REPRESENTATION_RELATIONSHIP('','',#343,#19);
#19=ADVANCED_BREP_SHAPE_REPRESENTATION('',(#341),#601);
#20=TOROIDAL_SURFACE('',#375,4.15,0.8);
#21=TOROIDAL_SURFACE('',#378,2.3,0.8);
#22=TOROIDAL_SURFACE('',#382,4.15,0.8);
#23=TOROIDAL_SURFACE('',#386,2.3,0.8);
#24=B_SPLINE_CURVE_WITH_KNOTS('',3,(#541,#542,#543,#544),.UNSPECIFIED.,
 .F.,.F.,(4,4),(0.,0.000655957517322545),.UNSPECIFIED.);
#25=B_SPLINE_CURVE_WITH_KNOTS('',3,(#546,#547,#548,#549),.UNSPECIFIED.,
 .F.,.F.,(4,4),(0.000516522513509903,0.00125646879550152),.UNSPECIFIED.);
#26=B_SPLINE_CURVE_WITH_KNOTS('',3,(#550,#551,#552,#553),.UNSPECIFIED.,
 .F.,.F.,(4,4),(0.000516522513509903,0.00125646879550152),.UNSPECIFIED.);
#27=B_SPLINE_CURVE_WITH_KNOTS('',3,(#555,#556,#557,#558),.UNSPECIFIED.,
 .F.,.F.,(4,4),(0.,0.000655957517322545),.UNSPECIFIED.);
#28=B_SPLINE_CURVE_WITH_KNOTS('',3,(#579,#580,#581,#582),.UNSPECIFIED.,
 .F.,.F.,(4,4),(0.,0.000851504247165847),.UNSPECIFIED.);
#29=B_SPLINE_CURVE_WITH_KNOTS('',3,(#587,#588,#589,#590),.UNSPECIFIED.,
 .F.,.F.,(4,4),(0.,0.000851504247165847),.UNSPECIFIED.);
#30=CYLINDRICAL_SURFACE('',#357,1.5);
#31=CYLINDRICAL_SURFACE('',#360,1.);
#32=CYLINDRICAL_SURFACE('',#361,0.2);
#33=CYLINDRICAL_SURFACE('',#364,2.3);
#34=CYLINDRICAL_SURFACE('',#371,2.2);
#35=CYLINDRICAL_SURFACE('',#372,2.2);
#36=CYLINDRICAL_SURFACE('',#373,0.8);
#37=CYLINDRICAL_SURFACE('',#377,0.8);
#38=CYLINDRICAL_SURFACE('',#380,0.8);
#39=CYLINDRICAL_SURFACE('',#384,0.8);
#40=CIRCLE('',#346,4.15);
#41=CIRCLE('',#347,2.2);
#42=CIRCLE('',#349,4.15);
#43=CIRCLE('',#350,2.2);
#44=CIRCLE('',#352,4.95);
#45=CIRCLE('',#353,2.2);
#46=CIRCLE('',#355,4.95);
#47=CIRCLE('',#356,2.2);
#48=CIRCLE('',#358,1.5);
#49=CIRCLE('',#359,1.5);
#50=CIRCLE('',#362,0.2);
#51=CIRCLE('',#363,0.2);
#52=CIRCLE('',#365,2.3);
#53=CIRCLE('',#366,2.3);
#54=CIRCLE('',#368,2.3);
#55=CIRCLE('',#370,2.3);
#56=CIRCLE('',#374,0.8);
#57=CIRCLE('',#376,0.8);
#58=CIRCLE('',#379,0.8);
#59=CIRCLE('',#381,0.8);
#60=CIRCLE('',#383,0.8);
#61=CIRCLE('',#385,0.8);
#62=ORIENTED_EDGE('',*,*,#150,.T.);
#63=ORIENTED_EDGE('',*,*,#151,.T.);
#64=ORIENTED_EDGE('',*,*,#152,.T.);
#65=ORIENTED_EDGE('',*,*,#153,.T.);
#66=ORIENTED_EDGE('',*,*,#154,.T.);
#67=ORIENTED_EDGE('',*,*,#155,.T.);
#68=ORIENTED_EDGE('',*,*,#156,.T.);
#69=ORIENTED_EDGE('',*,*,#157,.F.);
#70=ORIENTED_EDGE('',*,*,#158,.T.);
#71=ORIENTED_EDGE('',*,*,#159,.T.);
#72=ORIENTED_EDGE('',*,*,#160,.F.);
#73=ORIENTED_EDGE('',*,*,#161,.T.);
#74=ORIENTED_EDGE('',*,*,#162,.T.);
#75=ORIENTED_EDGE('',*,*,#163,.T.);
#76=ORIENTED_EDGE('',*,*,#164,.T.);
#77=ORIENTED_EDGE('',*,*,#165,.T.);
#78=ORIENTED_EDGE('',*,*,#166,.F.);
#79=ORIENTED_EDGE('',*,*,#167,.F.);
#80=ORIENTED_EDGE('',*,*,#168,.T.);
#81=ORIENTED_EDGE('',*,*,#169,.T.);
#82=ORIENTED_EDGE('',*,*,#150,.F.);
#83=ORIENTED_EDGE('',*,*,#170,.T.);
#84=ORIENTED_EDGE('',*,*,#171,.T.);
#85=ORIENTED_EDGE('',*,*,#172,.T.);
#86=ORIENTED_EDGE('',*,*,#171,.F.);
#87=ORIENTED_EDGE('',*,*,#173,.T.);
#88=ORIENTED_EDGE('',*,*,#174,.T.);
#89=ORIENTED_EDGE('',*,*,#157,.T.);
#90=ORIENTED_EDGE('',*,*,#175,.T.);
#91=ORIENTED_EDGE('',*,*,#176,.T.);
#92=ORIENTED_EDGE('',*,*,#177,.F.);
#93=ORIENTED_EDGE('',*,*,#163,.F.);
#94=ORIENTED_EDGE('',*,*,#178,.T.);
#95=ORIENTED_EDGE('',*,*,#179,.T.);
#96=ORIENTED_EDGE('',*,*,#180,.F.);
#97=ORIENTED_EDGE('',*,*,#179,.F.);
#98=ORIENTED_EDGE('',*,*,#181,.T.);
#99=ORIENTED_EDGE('',*,*,#167,.T.);
#100=ORIENTED_EDGE('',*,*,#182,.T.);
#101=ORIENTED_EDGE('',*,*,#183,.T.);
#102=ORIENTED_EDGE('',*,*,#178,.F.);
#103=ORIENTED_EDGE('',*,*,#177,.T.);
#104=ORIENTED_EDGE('',*,*,#184,.T.);
#105=ORIENTED_EDGE('',*,*,#185,.T.);
#106=ORIENTED_EDGE('',*,*,#169,.F.);
#107=ORIENTED_EDGE('',*,*,#154,.F.);
#108=ORIENTED_EDGE('',*,*,#164,.F.);
#109=ORIENTED_EDGE('',*,*,#159,.F.);
#110=ORIENTED_EDGE('',*,*,#174,.F.);
#111=ORIENTED_EDGE('',*,*,#186,.T.);
#112=ORIENTED_EDGE('',*,*,#182,.F.);
#113=ORIENTED_EDGE('',*,*,#162,.F.);
#114=ORIENTED_EDGE('',*,*,#187,.F.);
#115=ORIENTED_EDGE('',*,*,#158,.F.);
#116=ORIENTED_EDGE('',*,*,#187,.T.);
#117=ORIENTED_EDGE('',*,*,#161,.F.);
#118=ORIENTED_EDGE('',*,*,#188,.F.);
#119=ORIENTED_EDGE('',*,*,#155,.F.);
#120=ORIENTED_EDGE('',*,*,#185,.F.);
#121=ORIENTED_EDGE('',*,*,#189,.T.);
#122=ORIENTED_EDGE('',*,*,#175,.F.);
#123=ORIENTED_EDGE('',*,*,#156,.F.);
#124=ORIENTED_EDGE('',*,*,#188,.T.);
#125=ORIENTED_EDGE('',*,*,#160,.T.);
#126=ORIENTED_EDGE('',*,*,#184,.F.);
#127=ORIENTED_EDGE('',*,*,#180,.T.);
#128=ORIENTED_EDGE('',*,*,#190,.F.);
#129=ORIENTED_EDGE('',*,*,#172,.F.);
#130=ORIENTED_EDGE('',*,*,#176,.F.);
#131=ORIENTED_EDGE('',*,*,#189,.F.);
#132=ORIENTED_EDGE('',*,*,#190,.T.);
#133=ORIENTED_EDGE('',*,*,#166,.T.);
#134=ORIENTED_EDGE('',*,*,#191,.F.);
#135=ORIENTED_EDGE('',*,*,#151,.F.);
#136=ORIENTED_EDGE('',*,*,#191,.T.);
#137=ORIENTED_EDGE('',*,*,#165,.F.);
#138=ORIENTED_EDGE('',*,*,#192,.F.);
#139=ORIENTED_EDGE('',*,*,#152,.F.);
#140=ORIENTED_EDGE('',*,*,#192,.T.);
#141=ORIENTED_EDGE('',*,*,#168,.F.);
#142=ORIENTED_EDGE('',*,*,#193,.F.);
#143=ORIENTED_EDGE('',*,*,#153,.F.);
#144=ORIENTED_EDGE('',*,*,#181,.F.);
#145=ORIENTED_EDGE('',*,*,#183,.F.);
#146=ORIENTED_EDGE('',*,*,#186,.F.);
#147=ORIENTED_EDGE('',*,*,#173,.F.);
#148=ORIENTED_EDGE('',*,*,#170,.F.);
#149=ORIENTED_EDGE('',*,*,#193,.T.);
#150=EDGE_CURVE('',#194,#195,#222,.T.);
#151=EDGE_CURVE('',#195,#196,#223,.F.);
#152=EDGE_CURVE('',#196,#197,#40,.T.);
#153=EDGE_CURVE('',#197,#194,#224,.T.);
#154=EDGE_CURVE('',#198,#198,#41,.F.);
#155=EDGE_CURVE('',#199,#200,#42,.T.);
#156=EDGE_CURVE('',#200,#201,#225,.F.);
#157=EDGE_CURVE('',#202,#201,#226,.T.);
#158=EDGE_CURVE('',#202,#199,#227,.T.);
#159=EDGE_CURVE('',#203,#203,#43,.F.);
#160=EDGE_CURVE('',#204,#205,#228,.T.);
#161=EDGE_CURVE('',#204,#206,#44,.T.);
#162=EDGE_CURVE('',#206,#207,#229,.T.);
#163=EDGE_CURVE('',#207,#205,#230,.T.);
#164=EDGE_CURVE('',#208,#208,#45,.T.);
#165=EDGE_CURVE('',#209,#210,#46,.T.);
#166=EDGE_CURVE('',#211,#210,#231,.T.);
#167=EDGE_CURVE('',#212,#211,#232,.T.);
#168=EDGE_CURVE('',#212,#209,#233,.T.);
#169=EDGE_CURVE('',#213,#213,#47,.F.);
#170=EDGE_CURVE('',#194,#214,#48,.T.);
#171=EDGE_CURVE('',#214,#215,#234,.T.);
#172=EDGE_CURVE('',#215,#195,#49,.F.);
#173=EDGE_CURVE('',#214,#216,#24,.F.);
#174=EDGE_CURVE('',#216,#202,#25,.T.);
#175=EDGE_CURVE('',#201,#217,#26,.F.);
#176=EDGE_CURVE('',#217,#215,#27,.T.);
#177=EDGE_CURVE('',#205,#218,#50,.T.);
#178=EDGE_CURVE('',#207,#219,#51,.T.);
#179=EDGE_CURVE('',#219,#218,#235,.T.);
#180=EDGE_CURVE('',#218,#211,#52,.T.);
#181=EDGE_CURVE('',#219,#212,#53,.T.);
#182=EDGE_CURVE('',#207,#220,#236,.F.);
#183=EDGE_CURVE('',#220,#219,#54,.F.);
#184=EDGE_CURVE('',#218,#221,#55,.T.);
#185=EDGE_CURVE('',#221,#205,#237,.T.);
#186=EDGE_CURVE('',#216,#220,#28,.T.);
#187=EDGE_CURVE('',#199,#206,#56,.T.);
#188=EDGE_CURVE('',#200,#204,#57,.T.);
#189=EDGE_CURVE('',#221,#217,#29,.F.);
#190=EDGE_CURVE('',#195,#211,#58,.T.);
#191=EDGE_CURVE('',#196,#210,#59,.T.);
#192=EDGE_CURVE('',#197,#209,#60,.T.);
#193=EDGE_CURVE('',#194,#212,#61,.T.);
#194=VERTEX_POINT('',#492);
#195=VERTEX_POINT('',#493);
#196=VERTEX_POINT('',#495);
#197=VERTEX_POINT('',#497);
#198=VERTEX_POINT('',#500);
#199=VERTEX_POINT('',#503);
#200=VERTEX_POINT('',#504);
#201=VERTEX_POINT('',#506);
#202=VERTEX_POINT('',#508);
#203=VERTEX_POINT('',#511);
#204=VERTEX_POINT('',#514);
#205=VERTEX_POINT('',#515);
#206=VERTEX_POINT('',#517);
#207=VERTEX_POINT('',#519);
#208=VERTEX_POINT('',#522);
#209=VERTEX_POINT('',#525);
#210=VERTEX_POINT('',#526);
#211=VERTEX_POINT('',#528);
#212=VERTEX_POINT('',#530);
#213=VERTEX_POINT('',#533);
#214=VERTEX_POINT('',#536);
#215=VERTEX_POINT('',#538);
#216=VERTEX_POINT('',#545);
#217=VERTEX_POINT('',#554);
#218=VERTEX_POINT('',#561);
#219=VERTEX_POINT('',#563);
#220=VERTEX_POINT('',#570);
#221=VERTEX_POINT('',#574);
#222=LINE('',#491,#238);
#223=LINE('',#494,#239);
#224=LINE('',#498,#240);
#225=LINE('',#505,#241);
#226=LINE('',#507,#242);
#227=LINE('',#509,#243);
#228=LINE('',#513,#244);
#229=LINE('',#518,#245);
#230=LINE('',#520,#246);
#231=LINE('',#527,#247);
#232=LINE('',#529,#248);
#233=LINE('',#531,#249);
#234=LINE('',#537,#250);
#235=LINE('',#564,#251);
#236=LINE('',#569,#252);
#237=LINE('',#575,#253);
#238=VECTOR('',#391,1000.);
#239=VECTOR('',#392,1000.);
#240=VECTOR('',#395,1000.);
#241=VECTOR('',#402,1000.);
#242=VECTOR('',#403,1000.);
#243=VECTOR('',#404,1000.);
#244=VECTOR('',#409,1000.);
#245=VECTOR('',#412,1000.);
#246=VECTOR('',#413,1000.);
#247=VECTOR('',#420,1000.);
#248=VECTOR('',#421,1000.);
#249=VECTOR('',#422,1000.);
#250=VECTOR('',#429,1000.);
#251=VECTOR('',#440,1000.);
#252=VECTOR('',#449,1000.);
#253=VECTOR('',#456,1000.);
#254=EDGE_LOOP('',(#62,#63,#64,#65));
#255=EDGE_LOOP('',(#66));
#256=EDGE_LOOP('',(#67,#68,#69,#70));
#257=EDGE_LOOP('',(#71));
#258=EDGE_LOOP('',(#72,#73,#74,#75));
#259=EDGE_LOOP('',(#76));
#260=EDGE_LOOP('',(#77,#78,#79,#80));
#261=EDGE_LOOP('',(#81));
#262=EDGE_LOOP('',(#82,#83,#84,#85));
#263=EDGE_LOOP('',(#86,#87,#88,#89,#90,#91));
#264=EDGE_LOOP('',(#92,#93,#94,#95));
#265=EDGE_LOOP('',(#96,#97,#98,#99));
#266=EDGE_LOOP('',(#100,#101,#102));
#267=EDGE_LOOP('',(#103,#104,#105));
#268=EDGE_LOOP('',(#106));
#269=EDGE_LOOP('',(#107));
#270=EDGE_LOOP('',(#108));
#271=EDGE_LOOP('',(#109));
#272=EDGE_LOOP('',(#110,#111,#112,#113,#114,#115));
#273=EDGE_LOOP('',(#116,#117,#118,#119));
#274=EDGE_LOOP('',(#120,#121,#122,#123,#124,#125));
#275=EDGE_LOOP('',(#126,#127,#128,#129,#130,#131));
#276=EDGE_LOOP('',(#132,#133,#134,#135));
#277=EDGE_LOOP('',(#136,#137,#138,#139));
#278=EDGE_LOOP('',(#140,#141,#142,#143));
#279=EDGE_LOOP('',(#144,#145,#146,#147,#148,#149));
#280=FACE_BOUND('',#254,.T.);
#281=FACE_BOUND('',#255,.T.);
#282=FACE_BOUND('',#256,.T.);
#283=FACE_BOUND('',#257,.T.);
#284=FACE_BOUND('',#258,.T.);
#285=FACE_BOUND('',#259,.T.);
#286=FACE_BOUND('',#260,.T.);
#287=FACE_BOUND('',#261,.T.);
#288=FACE_BOUND('',#262,.T.);
#289=FACE_BOUND('',#263,.T.);
#290=FACE_BOUND('',#264,.T.);
#291=FACE_BOUND('',#265,.T.);
#292=FACE_BOUND('',#266,.T.);
#293=FACE_BOUND('',#267,.T.);
#294=FACE_BOUND('',#268,.T.);
#295=FACE_BOUND('',#269,.T.);
#296=FACE_BOUND('',#270,.T.);
#297=FACE_BOUND('',#271,.T.);
#298=FACE_BOUND('',#272,.T.);
#299=FACE_BOUND('',#273,.T.);
#300=FACE_BOUND('',#274,.T.);
#301=FACE_BOUND('',#275,.T.);
#302=FACE_BOUND('',#276,.T.);
#303=FACE_BOUND('',#277,.T.);
#304=FACE_BOUND('',#278,.T.);
#305=FACE_BOUND('',#279,.T.);
#306=PLANE('',#345);
#307=PLANE('',#348);
#308=PLANE('',#351);
#309=PLANE('',#354);
#310=PLANE('',#367);
#311=PLANE('',#369);
#312=ADVANCED_FACE('',(#280,#281),#306,.T.);
#313=ADVANCED_FACE('',(#282,#283),#307,.T.);
#314=ADVANCED_FACE('',(#284,#285),#308,.T.);
#315=ADVANCED_FACE('',(#286,#287),#309,.T.);
#316=ADVANCED_FACE('',(#288),#30,.F.);
#317=ADVANCED_FACE('',(#289),#31,.T.);
#318=ADVANCED_FACE('',(#290),#32,.F.);
#319=ADVANCED_FACE('',(#291),#33,.T.);
#320=ADVANCED_FACE('',(#292),#310,.T.);
#321=ADVANCED_FACE('',(#293),#311,.F.);
#322=ADVANCED_FACE('',(#294,#295),#34,.F.);
#323=ADVANCED_FACE('',(#296,#297),#35,.F.);
#324=ADVANCED_FACE('',(#298),#36,.T.);
#325=ADVANCED_FACE('',(#299),#20,.T.);
#326=ADVANCED_FACE('',(#300),#37,.T.);
#327=ADVANCED_FACE('',(#301),#21,.T.);
#328=ADVANCED_FACE('',(#302),#38,.T.);
#329=ADVANCED_FACE('',(#303),#22,.T.);
#330=ADVANCED_FACE('',(#304),#39,.T.);
#331=ADVANCED_FACE('',(#305),#23,.T.);
#332=CLOSED_SHELL('',(#312,#313,#314,#315,#316,#317,#318,#319,#320,#321,
#322,#323,#324,#325,#326,#327,#328,#329,#330,#331));
#333=STYLED_ITEM('',(#334),#341);
#334=PRESENTATION_STYLE_ASSIGNMENT((#335));
#335=SURFACE_STYLE_USAGE(.BOTH.,#336);
#336=SURFACE_SIDE_STYLE('',(#337));
#337=SURFACE_STYLE_FILL_AREA(#338);
#338=FILL_AREA_STYLE('',(#339));
#339=FILL_AREA_STYLE_COLOUR('',#340);
#340=COLOUR_RGB('',0.645180702209473,0.678915679454803,0.699999988079071);
#341=MANIFOLD_SOLID_BREP('',#332);
#342=SHAPE_DEFINITION_REPRESENTATION(#606,#343);
#343=SHAPE_REPRESENTATION('500911500',(#344),#601);
#344=AXIS2_PLACEMENT_3D('',#489,#387,#388);
#345=AXIS2_PLACEMENT_3D('',#490,#389,#390);
#346=AXIS2_PLACEMENT_3D('',#496,#393,#394);
#347=AXIS2_PLACEMENT_3D('',#499,#396,#397);
#348=AXIS2_PLACEMENT_3D('',#501,#398,#399);
#349=AXIS2_PLACEMENT_3D('',#502,#400,#401);
#350=AXIS2_PLACEMENT_3D('',#510,#405,#406);
#351=AXIS2_PLACEMENT_3D('',#512,#407,#408);
#352=AXIS2_PLACEMENT_3D('',#516,#410,#411);
#353=AXIS2_PLACEMENT_3D('',#521,#414,#415);
#354=AXIS2_PLACEMENT_3D('',#523,#416,#417);
#355=AXIS2_PLACEMENT_3D('',#524,#418,#419);
#356=AXIS2_PLACEMENT_3D('',#532,#423,#424);
#357=AXIS2_PLACEMENT_3D('',#534,#425,#426);
#358=AXIS2_PLACEMENT_3D('',#535,#427,#428);
#359=AXIS2_PLACEMENT_3D('',#539,#430,#431);
#360=AXIS2_PLACEMENT_3D('',#540,#432,#433);
#361=AXIS2_PLACEMENT_3D('',#559,#434,#435);
#362=AXIS2_PLACEMENT_3D('',#560,#436,#437);
#363=AXIS2_PLACEMENT_3D('',#562,#438,#439);
#364=AXIS2_PLACEMENT_3D('',#565,#441,#442);
#365=AXIS2_PLACEMENT_3D('',#566,#443,#444);
#366=AXIS2_PLACEMENT_3D('',#567,#445,#446);
#367=AXIS2_PLACEMENT_3D('',#568,#447,#448);
#368=AXIS2_PLACEMENT_3D('',#571,#450,#451);
#369=AXIS2_PLACEMENT_3D('',#572,#452,#453);
#370=AXIS2_PLACEMENT_3D('',#573,#454,#455);
#371=AXIS2_PLACEMENT_3D('',#576,#457,#458);
#372=AXIS2_PLACEMENT_3D('',#577,#459,#460);
#373=AXIS2_PLACEMENT_3D('',#578,#461,#462);
#374=AXIS2_PLACEMENT_3D('',#583,#463,#464);
#375=AXIS2_PLACEMENT_3D('',#584,#465,#466);
#376=AXIS2_PLACEMENT_3D('',#585,#467,#468);
#377=AXIS2_PLACEMENT_3D('',#586,#469,#470);
#378=AXIS2_PLACEMENT_3D('',#591,#471,#472);
#379=AXIS2_PLACEMENT_3D('',#592,#473,#474);
#380=AXIS2_PLACEMENT_3D('',#593,#475,#476);
#381=AXIS2_PLACEMENT_3D('',#594,#477,#478);
#382=AXIS2_PLACEMENT_3D('',#595,#479,#480);
#383=AXIS2_PLACEMENT_3D('',#596,#481,#482);
#384=AXIS2_PLACEMENT_3D('',#597,#483,#484);
#385=AXIS2_PLACEMENT_3D('',#598,#485,#486);
#386=AXIS2_PLACEMENT_3D('',#599,#487,#488);
#387=DIRECTION('',(0.,0.,1.));
#388=DIRECTION('',(1.,0.,0.));
#389=DIRECTION('',(0.,0.,1.));
#390=DIRECTION('',(1.,0.,0.));
#391=DIRECTION('',(0.,1.,0.));
#392=DIRECTION('',(1.,0.,0.));
#393=DIRECTION('',(0.,0.,1.));
#394=DIRECTION('',(1.,0.,0.));
#395=DIRECTION('',(1.,0.,0.));
#396=DIRECTION('',(0.,0.,1.));
#397=DIRECTION('',(1.,0.,0.));
#398=DIRECTION('',(1.13483626384476E-16,0.,-1.));
#399=DIRECTION('',(-1.,0.,-1.13483626384476E-16));
#400=DIRECTION('',(1.13483626384476E-16,0.,-1.));
#401=DIRECTION('',(-1.,0.,-1.13483626384476E-16));
#402=DIRECTION('',(-1.,0.,-1.13483626384476E-16));
#403=DIRECTION('',(0.,1.,0.));
#404=DIRECTION('',(-1.,0.,-1.13483626384476E-16));
#405=DIRECTION('',(1.13483626384476E-16,0.,-1.));
#406=DIRECTION('',(-1.,0.,-1.13483626384476E-16));
#407=DIRECTION('',(-7.56557509229839E-17,0.,1.));
#408=DIRECTION('',(1.,0.,7.56557509229839E-17));
#409=DIRECTION('',(1.,0.,7.56557509229839E-17));
#410=DIRECTION('',(-7.56557509229839E-17,0.,1.));
#411=DIRECTION('',(1.,0.,7.56557509229839E-17));
#412=DIRECTION('',(1.,0.,7.56557509229839E-17));
#413=DIRECTION('',(0.,1.,0.));
#414=DIRECTION('',(7.56557509229839E-17,0.,-1.));
#415=DIRECTION('',(1.,0.,7.56557509229839E-17));
#416=DIRECTION('',(-6.37765983815003E-17,0.,-1.));
#417=DIRECTION('',(-1.,0.,6.37765983815003E-17));
#418=DIRECTION('',(-6.37765983815003E-17,0.,-1.));
#419=DIRECTION('',(-1.,0.,6.37765983815003E-17));
#420=DIRECTION('',(-1.,0.,6.37765983815003E-17));
#421=DIRECTION('',(0.,1.,0.));
#422=DIRECTION('',(-1.,0.,6.37765983815003E-17));
#423=DIRECTION('',(-6.37765983815003E-17,0.,-1.));
#424=DIRECTION('',(-1.,0.,6.37765983815003E-17));
#425=DIRECTION('',(0.,1.,0.));
#426=DIRECTION('',(0.,0.,1.));
#427=DIRECTION('',(0.,-1.,0.));
#428=DIRECTION('',(0.,0.,-1.));
#429=DIRECTION('',(0.,1.,0.));
#430=DIRECTION('',(0.,-1.,0.));
#431=DIRECTION('',(0.,0.,-1.));
#432=DIRECTION('',(0.,1.,0.));
#433=DIRECTION('',(0.,0.,1.));
#434=DIRECTION('',(0.,1.,0.));
#435=DIRECTION('',(0.,0.,1.));
#436=DIRECTION('',(0.,-1.,0.));
#437=DIRECTION('',(1.,0.,0.));
#438=DIRECTION('',(0.,-1.,0.));
#439=DIRECTION('',(1.,0.,0.));
#440=DIRECTION('',(0.,1.,0.));
#441=DIRECTION('',(0.,1.,0.));
#442=DIRECTION('',(0.,0.,1.));
#443=DIRECTION('',(0.,1.,0.));
#444=DIRECTION('',(-1.,0.,0.));
#445=DIRECTION('',(0.,1.,0.));
#446=DIRECTION('',(-1.,0.,0.));
#447=DIRECTION('',(0.,-1.,0.));
#448=DIRECTION('',(0.,0.,-1.));
#449=DIRECTION('',(-1.,0.,-1.13483626384476E-16));
#450=DIRECTION('',(0.,-1.,0.));
#451=DIRECTION('',(0.,0.,-1.));
#452=DIRECTION('',(0.,-1.,0.));
#453=DIRECTION('',(0.,0.,-1.));
#454=DIRECTION('',(0.,-1.,0.));
#455=DIRECTION('',(0.,0.,-1.));
#456=DIRECTION('',(-1.,0.,-1.13483626384476E-16));
#457=DIRECTION('',(-7.56557509229839E-17,0.,1.));
#458=DIRECTION('',(1.,0.,7.56557509229839E-17));
#459=DIRECTION('',(-7.56557509229839E-17,0.,1.));
#460=DIRECTION('',(1.,0.,7.56557509229839E-17));
#461=DIRECTION('',(-1.,0.,-1.13483626384476E-16));
#462=DIRECTION('',(-1.13483626384476E-16,0.,1.));
#463=DIRECTION('',(-1.,0.,0.));
#464=DIRECTION('',(0.,0.,1.));
#465=DIRECTION('',(1.13483626384476E-16,0.,-1.));
#466=DIRECTION('',(-1.,0.,-1.13483626384476E-16));
#467=DIRECTION('',(1.,0.,0.));
#468=DIRECTION('',(0.,0.,-1.));
#469=DIRECTION('',(1.,0.,1.13483626384476E-16));
#470=DIRECTION('',(1.13483626384476E-16,0.,-1.));
#471=DIRECTION('',(0.,-1.,0.));
#472=DIRECTION('',(0.,0.,-1.));
#473=DIRECTION('',(-1.,-1.15648231731787E-15,-1.15648231731787E-15));
#474=DIRECTION('',(-1.15648231731787E-15,0.,1.));
#475=DIRECTION('',(-1.,0.,0.));
#476=DIRECTION('',(0.,0.,1.));
#477=DIRECTION('',(-1.,0.,0.));
#478=DIRECTION('',(0.,0.,1.));
#479=DIRECTION('',(0.,0.,1.));
#480=DIRECTION('',(1.,0.,0.));
#481=DIRECTION('',(1.,0.,0.));
#482=DIRECTION('',(0.,0.,-1.));
#483=DIRECTION('',(1.,0.,0.));
#484=DIRECTION('',(0.,0.,-1.));
#485=DIRECTION('',(1.,0.,0.));
#486=DIRECTION('',(0.,0.,-1.));
#487=DIRECTION('',(0.,-1.,0.));
#488=DIRECTION('',(0.,0.,-1.));
#489=CARTESIAN_POINT('',(0.,0.,0.));
#490=CARTESIAN_POINT('',(-13.6,-4.95,0.800000000000001));
#491=CARTESIAN_POINT('',(1.73472347597681E-15,-4.95,0.800000000000001));
#492=CARTESIAN_POINT('',(1.73472347597681E-15,-4.15,0.800000000000001));
#493=CARTESIAN_POINT('',(1.73472347597681E-15,4.15,0.800000000000001));
#494=CARTESIAN_POINT('',(-8.65,4.15,0.800000000000001));
#495=CARTESIAN_POINT('',(-8.65,4.15,0.800000000000001));
#496=CARTESIAN_POINT('',(-8.65,0.,0.800000000000001));
#497=CARTESIAN_POINT('',(-8.65,-4.15,0.800000000000001));
#498=CARTESIAN_POINT('',(-13.6,-4.15,0.800000000000001));
#499=CARTESIAN_POINT('',(-8.5,0.,0.800000000000002));
#500=CARTESIAN_POINT('',(-6.3,0.,0.800000000000002));
#501=CARTESIAN_POINT('',(-2.13541565040626,-4.95,2.6));
#502=CARTESIAN_POINT('',(-8.65,0.,2.6));
#503=CARTESIAN_POINT('',(-8.65,-4.15,2.6));
#504=CARTESIAN_POINT('',(-8.65,4.15,2.6));
#505=CARTESIAN_POINT('',(-2.13541565040626,4.15,2.6));
#506=CARTESIAN_POINT('',(-2.13541565040626,4.15,2.6));
#507=CARTESIAN_POINT('',(-2.13541565040626,-4.95,2.6));
#508=CARTESIAN_POINT('',(-2.13541565040626,-4.15,2.6));
#509=CARTESIAN_POINT('',(-2.13541565040626,-4.15,2.6));
#510=CARTESIAN_POINT('',(-8.5,0.,2.6));
#511=CARTESIAN_POINT('',(-10.7,0.,2.6));
#512=CARTESIAN_POINT('',(-2.13541565040626,-4.95,3.4));
#513=CARTESIAN_POINT('',(-2.13541565040626,4.95,3.4));
#514=CARTESIAN_POINT('',(-8.65,4.95,3.4));
#515=CARTESIAN_POINT('',(-2.13541565040626,4.95,3.4));
#516=CARTESIAN_POINT('',(-8.65,0.,3.4));
#517=CARTESIAN_POINT('',(-8.65,-4.95,3.4));
#518=CARTESIAN_POINT('',(-2.13541565040626,-4.95,3.4));
#519=CARTESIAN_POINT('',(-2.13541565040626,-4.95,3.4));
#520=CARTESIAN_POINT('',(-2.13541565040626,-4.95,3.4));
#521=CARTESIAN_POINT('',(-8.5,0.,3.4));
#522=CARTESIAN_POINT('',(-6.3,0.,3.4));
#523=CARTESIAN_POINT('',(-13.6,-4.95,8.67361737988404E-16));
#524=CARTESIAN_POINT('',(-8.65,0.,0.));
#525=CARTESIAN_POINT('',(-8.65,-4.95,0.));
#526=CARTESIAN_POINT('',(-8.65,4.95,0.));
#527=CARTESIAN_POINT('',(-13.6,4.95,8.67361737988404E-16));
#528=CARTESIAN_POINT('',(4.22503145705837E-16,4.95,0.));
#529=CARTESIAN_POINT('',(4.22503145705837E-16,-4.95,0.));
#530=CARTESIAN_POINT('',(4.22503145705837E-16,-4.95,0.));
#531=CARTESIAN_POINT('',(-13.6,-4.95,8.67361737988404E-16));
#532=CARTESIAN_POINT('',(-8.5,0.,0.));
#533=CARTESIAN_POINT('',(-10.7,0.,1.40308516439301E-16));
#534=CARTESIAN_POINT('',(0.,-4.95,2.3));
#535=CARTESIAN_POINT('',(0.,-4.15,2.3));
#536=CARTESIAN_POINT('',(-1.28124939024376,-4.15,3.08));
#537=CARTESIAN_POINT('',(-1.28124939024376,-4.95,3.08));
#538=CARTESIAN_POINT('',(-1.28124939024376,4.15,3.08));
#539=CARTESIAN_POINT('',(0.,4.15,2.3));
#540=CARTESIAN_POINT('',(-2.13541565040626,-4.95,3.6));
#541=CARTESIAN_POINT('',(-1.59428560331049,-4.62874554520053,2.75906107705129));
#542=CARTESIAN_POINT('',(-1.45390698632829,-4.48160849983437,2.84939235503811));
#543=CARTESIAN_POINT('',(-1.35568327104525,-4.31528561312208,2.95773286616617));
#544=CARTESIAN_POINT('',(-1.28124939024376,-4.15,3.08));
#545=CARTESIAN_POINT('',(-1.59428560331049,-4.62874554520053,2.75906107705129));
#546=CARTESIAN_POINT('',(-1.59428560331049,-4.62874554520053,2.7590610770513));
#547=CARTESIAN_POINT('',(-1.76335791746306,-4.48309182130248,2.65026588774175));
#548=CARTESIAN_POINT('',(-1.95157418420085,-4.31443270418898,2.6));
#549=CARTESIAN_POINT('',(-2.13541565040626,-4.15,2.6));
#550=CARTESIAN_POINT('',(-1.59428560331049,4.62874554520053,2.75906107705129));
#551=CARTESIAN_POINT('',(-1.76335791746306,4.48309182130248,2.65026588774175));
#552=CARTESIAN_POINT('',(-1.95157418420067,4.31443270418879,2.6));
#553=CARTESIAN_POINT('',(-2.13541565040626,4.15,2.6));
#554=CARTESIAN_POINT('',(-1.59428560331049,4.62874554520053,2.75906107705129));
#555=CARTESIAN_POINT('',(-1.59428560331049,4.62874554520053,2.75906107705129));
#556=CARTESIAN_POINT('',(-1.45390698632829,4.48160849983437,2.84939235503811));
#557=CARTESIAN_POINT('',(-1.35568327104461,4.31528561312315,2.95773286616722));
#558=CARTESIAN_POINT('',(-1.28124939024376,4.15,3.08));
#559=CARTESIAN_POINT('',(-2.13541565040626,-4.95,3.6));
#560=CARTESIAN_POINT('',(-2.13541565040626,4.95,3.6));
#561=CARTESIAN_POINT('',(-1.96458239837376,4.95,3.496));
#562=CARTESIAN_POINT('',(-2.13541565040626,-4.95,3.6));
#563=CARTESIAN_POINT('',(-1.96458239837376,-4.95,3.496));
#564=CARTESIAN_POINT('',(-1.96458239837376,-4.95,3.496));
#565=CARTESIAN_POINT('',(0.,-4.95,2.3));
#566=CARTESIAN_POINT('',(0.,4.95,2.3));
#567=CARTESIAN_POINT('',(0.,-4.95,2.3));
#568=CARTESIAN_POINT('',(0.,-4.95,2.3));
#569=CARTESIAN_POINT('',(-1.24831989022924E-16,-4.95,3.4));
#570=CARTESIAN_POINT('',(-2.01990098767242,-4.95,3.4));
#571=CARTESIAN_POINT('',(0.,-4.95,2.3));
#572=CARTESIAN_POINT('',(0.,4.95,2.3));
#573=CARTESIAN_POINT('',(0.,4.95,2.3));
#574=CARTESIAN_POINT('',(-2.01990098767242,4.95,3.4));
#575=CARTESIAN_POINT('',(-8.65,4.95,3.4));
#576=CARTESIAN_POINT('',(-8.5,0.,-15.8867830391696));
#577=CARTESIAN_POINT('',(-8.5,0.,-15.8867830391696));
#578=CARTESIAN_POINT('',(-2.13541565040626,-4.15,3.4));
#579=CARTESIAN_POINT('',(-1.59428560331049,-4.62874554520053,2.75906107705129));
#580=CARTESIAN_POINT('',(-1.71270336503005,-4.83937234375477,2.91638752095609));
#581=CARTESIAN_POINT('',(-1.87484885439629,-4.95,3.15602731841579));
#582=CARTESIAN_POINT('',(-2.01990098767242,-4.95,3.4));
#583=CARTESIAN_POINT('',(-8.65,-4.15,3.4));
#584=CARTESIAN_POINT('',(-8.65,0.,3.4));
#585=CARTESIAN_POINT('',(-8.65,4.15,3.4));
#586=CARTESIAN_POINT('',(-1.24831989022924E-16,4.15,3.4));
#587=CARTESIAN_POINT('',(-1.59428560331049,4.62874554520053,2.75906107705129));
#588=CARTESIAN_POINT('',(-1.71270336503005,4.83937234375477,2.91638752095609));
#589=CARTESIAN_POINT('',(-1.87484885439633,4.95,3.15602731841576));
#590=CARTESIAN_POINT('',(-2.01990098767242,4.95,3.4));
#591=CARTESIAN_POINT('',(0.,4.15,2.3));
#592=CARTESIAN_POINT('',(2.65990932983111E-15,4.15,-1.0842021724855E-16));
#593=CARTESIAN_POINT('',(0.,4.15,8.67361737988404E-16));
#594=CARTESIAN_POINT('',(-8.65,4.15,7.58941520739853E-16));
#595=CARTESIAN_POINT('',(-8.65,0.,0.));
#596=CARTESIAN_POINT('',(-8.65,-4.15,7.58941520739853E-16));
#597=CARTESIAN_POINT('',(-13.6,-4.15,8.67361737988404E-16));
#598=CARTESIAN_POINT('',(1.73472347597681E-15,-4.15,7.58941520739853E-16));
#599=CARTESIAN_POINT('',(0.,-4.15,2.3));
#600=MECHANICAL_DESIGN_GEOMETRIC_PRESENTATION_REPRESENTATION('',(#333),
#601);
#601=(
GEOMETRIC_REPRESENTATION_CONTEXT(3)
GLOBAL_UNCERTAINTY_ASSIGNED_CONTEXT((#602))
GLOBAL_UNIT_ASSIGNED_CONTEXT((#605,#604,#603))
REPRESENTATION_CONTEXT('500911500','TOP_LEVEL_ASSEMBLY_PART')
);
#602=UNCERTAINTY_MEASURE_WITH_UNIT(LENGTH_MEASURE(0.005),#605,
'DISTANCE_ACCURACY_VALUE','Maximum Tolerance applied to model');
#603=(
NAMED_UNIT(*)
SI_UNIT($,.STERADIAN.)
SOLID_ANGLE_UNIT()
);
#604=(
NAMED_UNIT(*)
PLANE_ANGLE_UNIT()
SI_UNIT($,.RADIAN.)
);
#605=(
LENGTH_UNIT()
NAMED_UNIT(*)
SI_UNIT(.MILLI.,.METRE.)
);
#606=PRODUCT_DEFINITION_SHAPE('','',#607);
#607=PRODUCT_DEFINITION('','',#609,#608);
#608=PRODUCT_DEFINITION_CONTEXT('',#615,'design');
#609=PRODUCT_DEFINITION_FORMATION_WITH_SPECIFIED_SOURCE('','',#611,
 .NOT_KNOWN.);
#610=PRODUCT_RELATED_PRODUCT_CATEGORY('','',(#611));
#611=PRODUCT('500911500','500911500','500911500',(#613));
#612=PRODUCT_CATEGORY('','');
#613=PRODUCT_CONTEXT('',#615,'mechanical');
#614=APPLICATION_PROTOCOL_DEFINITION('international standard',
'automotive_design',2010,#615);
#615=APPLICATION_CONTEXT(
'core data for automotive mechanical design processes');
ENDSEC;
END-ISO-10303-21;
