ISO-10303-21;
HEADER;
/* Generated by software containing ST-Developer
 * from STEP Tools, Inc. (www.steptools.com) 
 */
/* OPTION: strings as raw bytes, not using required /X/ escapes */

FILE_DESCRIPTION(
/* description */ ('Unknown'),
/* implementation_level */ '2;1');

FILE_NAME(
/* name */ '33108x302025',
/* time_stamp */ '2016-02-16T15:55:09+01:00',
/* author */ ('Unknown'),
/* organization */ ('Unknown'),
/* preprocessor_version */ 'ST-DEVELOPER v16.7',
/* originating_system */ 'DEX',
/* authorisation */ $);

FILE_SCHEMA (('AUTOMOTIVE_DESIGN {1 0 10303 214 3 1 1}'));
ENDSEC;

DATA;
#10=PROPERTY_DEFINITION_REPRESENTATION(#14,#12);
#11=PROPERTY_DEFINITION_REPRESENTATION(#15,#13);
#12=REPRESENTATION('',(#16),#627);
#13=REPRESENTATION('',(#17),#627);
#14=PROPERTY_DEFINITION('pmi validation property','',#632);
#15=PROPERTY_DEFINITION('pmi validation property','',#632);
#16=VALUE_REPRESENTATION_ITEM('number of annotations',COUNT_MEASURE(0.));
#17=VALUE_REPRESENTATION_ITEM('number of views',COUNT_MEASURE(0.));
#18=SHAPE_REPRESENTATION_RELATIONSHIP('','',#383,#19);
#19=ADVANCED_BREP_SHAPE_REPRESENTATION('',(#381),#627);
#20=CYLINDRICAL_SURFACE('',#396,0.66999999999);
#21=CYLINDRICAL_SURFACE('',#403,0.75);
#22=CYLINDRICAL_SURFACE('',#407,0.49999999999);
#23=CYLINDRICAL_SURFACE('',#410,0.41999999999);
#24=CYLINDRICAL_SURFACE('',#415,0.40000000001);
#25=CYLINDRICAL_SURFACE('',#416,0.2);
#26=CYLINDRICAL_SURFACE('',#417,0.1);
#27=CIRCLE('',#386,0.2);
#28=CIRCLE('',#387,0.75);
#29=CIRCLE('',#388,0.49999999999);
#30=CIRCLE('',#389,0.41999999999);
#31=CIRCLE('',#390,0.66999999999);
#32=CIRCLE('',#391,0.1);
#33=CIRCLE('',#395,0.40000000001);
#34=CIRCLE('',#397,0.66999999999);
#35=CIRCLE('',#404,0.75);
#36=CIRCLE('',#406,0.40000000001);
#37=CIRCLE('',#408,0.49999999999);
#38=CIRCLE('',#411,0.41999999999);
#39=CIRCLE('',#413,0.2);
#40=CIRCLE('',#414,0.1);
#41=ORIENTED_EDGE('',*,*,#141,.F.);
#42=ORIENTED_EDGE('',*,*,#142,.T.);
#43=ORIENTED_EDGE('',*,*,#143,.F.);
#44=ORIENTED_EDGE('',*,*,#144,.F.);
#45=ORIENTED_EDGE('',*,*,#145,.F.);
#46=ORIENTED_EDGE('',*,*,#146,.F.);
#47=ORIENTED_EDGE('',*,*,#147,.F.);
#48=ORIENTED_EDGE('',*,*,#148,.F.);
#49=ORIENTED_EDGE('',*,*,#149,.F.);
#50=ORIENTED_EDGE('',*,*,#150,.F.);
#51=ORIENTED_EDGE('',*,*,#151,.F.);
#52=ORIENTED_EDGE('',*,*,#152,.F.);
#53=ORIENTED_EDGE('',*,*,#153,.F.);
#54=ORIENTED_EDGE('',*,*,#154,.T.);
#55=ORIENTED_EDGE('',*,*,#155,.F.);
#56=ORIENTED_EDGE('',*,*,#156,.F.);
#57=ORIENTED_EDGE('',*,*,#157,.F.);
#58=ORIENTED_EDGE('',*,*,#158,.T.);
#59=ORIENTED_EDGE('',*,*,#148,.T.);
#60=ORIENTED_EDGE('',*,*,#159,.T.);
#61=ORIENTED_EDGE('',*,*,#160,.T.);
#62=ORIENTED_EDGE('',*,*,#161,.T.);
#63=ORIENTED_EDGE('',*,*,#149,.T.);
#64=ORIENTED_EDGE('',*,*,#158,.F.);
#65=ORIENTED_EDGE('',*,*,#162,.T.);
#66=ORIENTED_EDGE('',*,*,#163,.T.);
#67=ORIENTED_EDGE('',*,*,#164,.T.);
#68=ORIENTED_EDGE('',*,*,#151,.T.);
#69=ORIENTED_EDGE('',*,*,#165,.T.);
#70=ORIENTED_EDGE('',*,*,#166,.T.);
#71=ORIENTED_EDGE('',*,*,#167,.T.);
#72=ORIENTED_EDGE('',*,*,#152,.T.);
#73=ORIENTED_EDGE('',*,*,#164,.F.);
#74=ORIENTED_EDGE('',*,*,#168,.T.);
#75=ORIENTED_EDGE('',*,*,#169,.T.);
#76=ORIENTED_EDGE('',*,*,#153,.T.);
#77=ORIENTED_EDGE('',*,*,#167,.F.);
#78=ORIENTED_EDGE('',*,*,#155,.T.);
#79=ORIENTED_EDGE('',*,*,#170,.T.);
#80=ORIENTED_EDGE('',*,*,#171,.T.);
#81=ORIENTED_EDGE('',*,*,#172,.T.);
#82=ORIENTED_EDGE('',*,*,#173,.T.);
#83=ORIENTED_EDGE('',*,*,#174,.T.);
#84=ORIENTED_EDGE('',*,*,#156,.T.);
#85=ORIENTED_EDGE('',*,*,#172,.F.);
#86=ORIENTED_EDGE('',*,*,#175,.T.);
#87=ORIENTED_EDGE('',*,*,#176,.T.);
#88=ORIENTED_EDGE('',*,*,#141,.T.);
#89=ORIENTED_EDGE('',*,*,#174,.F.);
#90=ORIENTED_EDGE('',*,*,#143,.T.);
#91=ORIENTED_EDGE('',*,*,#177,.T.);
#92=ORIENTED_EDGE('',*,*,#178,.T.);
#93=ORIENTED_EDGE('',*,*,#179,.T.);
#94=ORIENTED_EDGE('',*,*,#180,.F.);
#95=ORIENTED_EDGE('',*,*,#181,.F.);
#96=ORIENTED_EDGE('',*,*,#144,.T.);
#97=ORIENTED_EDGE('',*,*,#179,.F.);
#98=ORIENTED_EDGE('',*,*,#182,.T.);
#99=ORIENTED_EDGE('',*,*,#183,.T.);
#100=ORIENTED_EDGE('',*,*,#184,.T.);
#101=ORIENTED_EDGE('',*,*,#145,.T.);
#102=ORIENTED_EDGE('',*,*,#181,.T.);
#103=ORIENTED_EDGE('',*,*,#185,.F.);
#104=ORIENTED_EDGE('',*,*,#186,.F.);
#105=ORIENTED_EDGE('',*,*,#146,.T.);
#106=ORIENTED_EDGE('',*,*,#184,.F.);
#107=ORIENTED_EDGE('',*,*,#187,.T.);
#108=ORIENTED_EDGE('',*,*,#159,.F.);
#109=ORIENTED_EDGE('',*,*,#147,.T.);
#110=ORIENTED_EDGE('',*,*,#186,.T.);
#111=ORIENTED_EDGE('',*,*,#188,.T.);
#112=ORIENTED_EDGE('',*,*,#165,.F.);
#113=ORIENTED_EDGE('',*,*,#150,.T.);
#114=ORIENTED_EDGE('',*,*,#161,.F.);
#115=ORIENTED_EDGE('',*,*,#178,.F.);
#116=ORIENTED_EDGE('',*,*,#189,.T.);
#117=ORIENTED_EDGE('',*,*,#175,.F.);
#118=ORIENTED_EDGE('',*,*,#173,.F.);
#119=ORIENTED_EDGE('',*,*,#171,.F.);
#120=ORIENTED_EDGE('',*,*,#190,.T.);
#121=ORIENTED_EDGE('',*,*,#168,.F.);
#122=ORIENTED_EDGE('',*,*,#166,.F.);
#123=ORIENTED_EDGE('',*,*,#163,.F.);
#124=ORIENTED_EDGE('',*,*,#188,.F.);
#125=ORIENTED_EDGE('',*,*,#160,.F.);
#126=ORIENTED_EDGE('',*,*,#157,.T.);
#127=ORIENTED_EDGE('',*,*,#187,.F.);
#128=ORIENTED_EDGE('',*,*,#185,.T.);
#129=ORIENTED_EDGE('',*,*,#183,.F.);
#130=ORIENTED_EDGE('',*,*,#180,.T.);
#131=ORIENTED_EDGE('',*,*,#162,.F.);
#132=ORIENTED_EDGE('',*,*,#182,.F.);
#133=ORIENTED_EDGE('',*,*,#189,.F.);
#134=ORIENTED_EDGE('',*,*,#177,.F.);
#135=ORIENTED_EDGE('',*,*,#142,.F.);
#136=ORIENTED_EDGE('',*,*,#176,.F.);
#137=ORIENTED_EDGE('',*,*,#190,.F.);
#138=ORIENTED_EDGE('',*,*,#170,.F.);
#139=ORIENTED_EDGE('',*,*,#154,.F.);
#140=ORIENTED_EDGE('',*,*,#169,.F.);
#141=EDGE_CURVE('',#191,#192,#225,.T.);
#142=EDGE_CURVE('',#191,#193,#27,.F.);
#143=EDGE_CURVE('',#194,#193,#226,.T.);
#144=EDGE_CURVE('',#195,#194,#28,.T.);
#145=EDGE_CURVE('',#196,#195,#227,.T.);
#146=EDGE_CURVE('',#197,#196,#29,.T.);
#147=EDGE_CURVE('',#198,#197,#228,.T.);
#148=EDGE_CURVE('',#199,#198,#229,.T.);
#149=EDGE_CURVE('',#200,#199,#230,.T.);
#150=EDGE_CURVE('',#201,#200,#30,.F.);
#151=EDGE_CURVE('',#202,#201,#231,.T.);
#152=EDGE_CURVE('',#203,#202,#31,.F.);
#153=EDGE_CURVE('',#204,#203,#232,.T.);
#154=EDGE_CURVE('',#204,#205,#32,.T.);
#155=EDGE_CURVE('',#206,#205,#233,.T.);
#156=EDGE_CURVE('',#192,#206,#234,.T.);
#157=EDGE_CURVE('',#207,#208,#235,.T.);
#158=EDGE_CURVE('',#207,#199,#236,.T.);
#159=EDGE_CURVE('',#198,#208,#237,.T.);
#160=EDGE_CURVE('',#207,#209,#238,.T.);
#161=EDGE_CURVE('',#209,#200,#239,.F.);
#162=EDGE_CURVE('',#210,#210,#33,.F.);
#163=EDGE_CURVE('',#211,#212,#240,.T.);
#164=EDGE_CURVE('',#212,#202,#241,.F.);
#165=EDGE_CURVE('',#201,#211,#242,.T.);
#166=EDGE_CURVE('',#212,#213,#34,.T.);
#167=EDGE_CURVE('',#213,#203,#243,.T.);
#168=EDGE_CURVE('',#213,#214,#244,.T.);
#169=EDGE_CURVE('',#214,#204,#245,.T.);
#170=EDGE_CURVE('',#205,#215,#246,.F.);
#171=EDGE_CURVE('',#215,#216,#247,.T.);
#172=EDGE_CURVE('',#216,#206,#248,.T.);
#173=EDGE_CURVE('',#216,#217,#249,.T.);
#174=EDGE_CURVE('',#217,#192,#250,.T.);
#175=EDGE_CURVE('',#217,#218,#251,.T.);
#176=EDGE_CURVE('',#218,#191,#252,.T.);
#177=EDGE_CURVE('',#193,#219,#253,.F.);
#178=EDGE_CURVE('',#219,#220,#254,.T.);
#179=EDGE_CURVE('',#220,#194,#255,.F.);
#180=EDGE_CURVE('',#221,#220,#35,.T.);
#181=EDGE_CURVE('',#195,#221,#256,.T.);
#182=EDGE_CURVE('',#222,#222,#36,.T.);
#183=EDGE_CURVE('',#221,#223,#257,.T.);
#184=EDGE_CURVE('',#223,#196,#258,.F.);
#185=EDGE_CURVE('',#224,#223,#37,.T.);
#186=EDGE_CURVE('',#197,#224,#259,.T.);
#187=EDGE_CURVE('',#224,#208,#260,.T.);
#188=EDGE_CURVE('',#209,#211,#38,.T.);
#189=EDGE_CURVE('',#219,#218,#39,.T.);
#190=EDGE_CURVE('',#215,#214,#40,.F.);
#191=VERTEX_POINT('',#525);
#192=VERTEX_POINT('',#526);
#193=VERTEX_POINT('',#528);
#194=VERTEX_POINT('',#530);
#195=VERTEX_POINT('',#532);
#196=VERTEX_POINT('',#534);
#197=VERTEX_POINT('',#536);
#198=VERTEX_POINT('',#538);
#199=VERTEX_POINT('',#540);
#200=VERTEX_POINT('',#542);
#201=VERTEX_POINT('',#544);
#202=VERTEX_POINT('',#546);
#203=VERTEX_POINT('',#548);
#204=VERTEX_POINT('',#550);
#205=VERTEX_POINT('',#552);
#206=VERTEX_POINT('',#554);
#207=VERTEX_POINT('',#558);
#208=VERTEX_POINT('',#559);
#209=VERTEX_POINT('',#564);
#210=VERTEX_POINT('',#568);
#211=VERTEX_POINT('',#570);
#212=VERTEX_POINT('',#571);
#213=VERTEX_POINT('',#576);
#214=VERTEX_POINT('',#580);
#215=VERTEX_POINT('',#584);
#216=VERTEX_POINT('',#586);
#217=VERTEX_POINT('',#590);
#218=VERTEX_POINT('',#594);
#219=VERTEX_POINT('',#598);
#220=VERTEX_POINT('',#600);
#221=VERTEX_POINT('',#604);
#222=VERTEX_POINT('',#608);
#223=VERTEX_POINT('',#610);
#224=VERTEX_POINT('',#614);
#225=LINE('',#524,#261);
#226=LINE('',#529,#262);
#227=LINE('',#533,#263);
#228=LINE('',#537,#264);
#229=LINE('',#539,#265);
#230=LINE('',#541,#266);
#231=LINE('',#545,#267);
#232=LINE('',#549,#268);
#233=LINE('',#553,#269);
#234=LINE('',#555,#270);
#235=LINE('',#557,#271);
#236=LINE('',#560,#272);
#237=LINE('',#561,#273);
#238=LINE('',#563,#274);
#239=LINE('',#565,#275);
#240=LINE('',#569,#276);
#241=LINE('',#572,#277);
#242=LINE('',#573,#278);
#243=LINE('',#577,#279);
#244=LINE('',#579,#280);
#245=LINE('',#581,#281);
#246=LINE('',#583,#282);
#247=LINE('',#585,#283);
#248=LINE('',#587,#284);
#249=LINE('',#589,#285);
#250=LINE('',#591,#286);
#251=LINE('',#593,#287);
#252=LINE('',#595,#288);
#253=LINE('',#597,#289);
#254=LINE('',#599,#290);
#255=LINE('',#601,#291);
#256=LINE('',#605,#292);
#257=LINE('',#609,#293);
#258=LINE('',#611,#294);
#259=LINE('',#615,#295);
#260=LINE('',#617,#296);
#261=VECTOR('',#422,1000.);
#262=VECTOR('',#425,1000.);
#263=VECTOR('',#428,1000.);
#264=VECTOR('',#431,1000.);
#265=VECTOR('',#432,1000.);
#266=VECTOR('',#433,1000.);
#267=VECTOR('',#436,1000.);
#268=VECTOR('',#439,1000.);
#269=VECTOR('',#442,1000.);
#270=VECTOR('',#443,1000.);
#271=VECTOR('',#446,1000.);
#272=VECTOR('',#447,1000.);
#273=VECTOR('',#448,1000.);
#274=VECTOR('',#451,1000.);
#275=VECTOR('',#452,1000.);
#276=VECTOR('',#457,1000.);
#277=VECTOR('',#458,1000.);
#278=VECTOR('',#459,1000.);
#279=VECTOR('',#464,1000.);
#280=VECTOR('',#467,1000.);
#281=VECTOR('',#468,1000.);
#282=VECTOR('',#471,1000.);
#283=VECTOR('',#472,1000.);
#284=VECTOR('',#473,1000.);
#285=VECTOR('',#476,1000.);
#286=VECTOR('',#477,1000.);
#287=VECTOR('',#480,1000.);
#288=VECTOR('',#481,1000.);
#289=VECTOR('',#484,1000.);
#290=VECTOR('',#485,1000.);
#291=VECTOR('',#486,1000.);
#292=VECTOR('',#491,1000.);
#293=VECTOR('',#496,1000.);
#294=VECTOR('',#497,1000.);
#295=VECTOR('',#502,1000.);
#296=VECTOR('',#505,1000.);
#297=EDGE_LOOP('',(#41,#42,#43,#44,#45,#46,#47,#48,#49,#50,#51,#52,#53,
#54,#55,#56));
#298=EDGE_LOOP('',(#57,#58,#59,#60));
#299=EDGE_LOOP('',(#61,#62,#63,#64));
#300=EDGE_LOOP('',(#65));
#301=EDGE_LOOP('',(#66,#67,#68,#69));
#302=EDGE_LOOP('',(#70,#71,#72,#73));
#303=EDGE_LOOP('',(#74,#75,#76,#77));
#304=EDGE_LOOP('',(#78,#79,#80,#81));
#305=EDGE_LOOP('',(#82,#83,#84,#85));
#306=EDGE_LOOP('',(#86,#87,#88,#89));
#307=EDGE_LOOP('',(#90,#91,#92,#93));
#308=EDGE_LOOP('',(#94,#95,#96,#97));
#309=EDGE_LOOP('',(#98));
#310=EDGE_LOOP('',(#99,#100,#101,#102));
#311=EDGE_LOOP('',(#103,#104,#105,#106));
#312=EDGE_LOOP('',(#107,#108,#109,#110));
#313=EDGE_LOOP('',(#111,#112,#113,#114));
#314=EDGE_LOOP('',(#115,#116,#117,#118,#119,#120,#121,#122,#123,#124,#125,
#126,#127,#128,#129,#130));
#315=EDGE_LOOP('',(#131));
#316=EDGE_LOOP('',(#132));
#317=EDGE_LOOP('',(#133,#134,#135,#136));
#318=EDGE_LOOP('',(#137,#138,#139,#140));
#319=FACE_BOUND('',#297,.T.);
#320=FACE_BOUND('',#298,.T.);
#321=FACE_BOUND('',#299,.T.);
#322=FACE_BOUND('',#300,.T.);
#323=FACE_BOUND('',#301,.T.);
#324=FACE_BOUND('',#302,.T.);
#325=FACE_BOUND('',#303,.T.);
#326=FACE_BOUND('',#304,.T.);
#327=FACE_BOUND('',#305,.T.);
#328=FACE_BOUND('',#306,.T.);
#329=FACE_BOUND('',#307,.T.);
#330=FACE_BOUND('',#308,.T.);
#331=FACE_BOUND('',#309,.T.);
#332=FACE_BOUND('',#310,.T.);
#333=FACE_BOUND('',#311,.T.);
#334=FACE_BOUND('',#312,.T.);
#335=FACE_BOUND('',#313,.T.);
#336=FACE_BOUND('',#314,.T.);
#337=FACE_BOUND('',#315,.T.);
#338=FACE_BOUND('',#316,.T.);
#339=FACE_BOUND('',#317,.T.);
#340=FACE_BOUND('',#318,.T.);
#341=PLANE('',#385);
#342=PLANE('',#392);
#343=PLANE('',#393);
#344=PLANE('',#394);
#345=PLANE('',#398);
#346=PLANE('',#399);
#347=PLANE('',#400);
#348=PLANE('',#401);
#349=PLANE('',#402);
#350=PLANE('',#405);
#351=PLANE('',#409);
#352=PLANE('',#412);
#353=ADVANCED_FACE(' TRM_SRF',(#319),#341,.F.);
#354=ADVANCED_FACE(' TRM_SRF',(#320),#342,.T.);
#355=ADVANCED_FACE(' TRM_SRF',(#321),#343,.T.);
#356=ADVANCED_FACE(' TRM_SRF',(#322,#323),#344,.T.);
#357=ADVANCED_FACE(' TRM_SRF',(#324),#20,.F.);
#358=ADVANCED_FACE(' TRM_SRF',(#325),#345,.T.);
#359=ADVANCED_FACE(' TRM_SRF',(#326),#346,.T.);
#360=ADVANCED_FACE(' TRM_SRF',(#327),#347,.T.);
#361=ADVANCED_FACE(' TRM_SRF',(#328),#348,.T.);
#362=ADVANCED_FACE(' TRM_SRF',(#329),#349,.T.);
#363=ADVANCED_FACE(' TRM_SRF',(#330),#21,.T.);
#364=ADVANCED_FACE(' TRM_SRF',(#331,#332),#350,.T.);
#365=ADVANCED_FACE(' TRM_SRF',(#333),#22,.T.);
#366=ADVANCED_FACE(' TRM_SRF',(#334),#351,.T.);
#367=ADVANCED_FACE(' TRM_SRF',(#335),#23,.F.);
#368=ADVANCED_FACE(' TRM_SRF',(#336),#352,.T.);
#369=ADVANCED_FACE(' TRM_SRF',(#337,#338),#24,.F.);
#370=ADVANCED_FACE('',(#339),#25,.T.);
#371=ADVANCED_FACE('',(#340),#26,.F.);
#372=CLOSED_SHELL('',(#353,#354,#355,#356,#357,#358,#359,#360,#361,#362,
#363,#364,#365,#366,#367,#368,#369,#370,#371));
#373=STYLED_ITEM('',(#374),#381);
#374=PRESENTATION_STYLE_ASSIGNMENT((#375));
#375=SURFACE_STYLE_USAGE(.BOTH.,#376);
#376=SURFACE_SIDE_STYLE('',(#377));
#377=SURFACE_STYLE_FILL_AREA(#378);
#378=FILL_AREA_STYLE('',(#379));
#379=FILL_AREA_STYLE_COLOUR('',#380);
#380=COLOUR_RGB('',0.87058824300766,0.633254885673523,0.172549024224281);
#381=MANIFOLD_SOLID_BREP(' TRM_SRF',#372);
#382=SHAPE_DEFINITION_REPRESENTATION(#632,#383);
#383=SHAPE_REPRESENTATION('33108x302025',(#384),#627);
#384=AXIS2_PLACEMENT_3D('',#522,#418,#419);
#385=AXIS2_PLACEMENT_3D('',#523,#420,#421);
#386=AXIS2_PLACEMENT_3D('',#527,#423,#424);
#387=AXIS2_PLACEMENT_3D('',#531,#426,#427);
#388=AXIS2_PLACEMENT_3D('',#535,#429,#430);
#389=AXIS2_PLACEMENT_3D('',#543,#434,#435);
#390=AXIS2_PLACEMENT_3D('',#547,#437,#438);
#391=AXIS2_PLACEMENT_3D('',#551,#440,#441);
#392=AXIS2_PLACEMENT_3D('',#556,#444,#445);
#393=AXIS2_PLACEMENT_3D('',#562,#449,#450);
#394=AXIS2_PLACEMENT_3D('',#566,#453,#454);
#395=AXIS2_PLACEMENT_3D('',#567,#455,#456);
#396=AXIS2_PLACEMENT_3D('',#574,#460,#461);
#397=AXIS2_PLACEMENT_3D('',#575,#462,#463);
#398=AXIS2_PLACEMENT_3D('',#578,#465,#466);
#399=AXIS2_PLACEMENT_3D('',#582,#469,#470);
#400=AXIS2_PLACEMENT_3D('',#588,#474,#475);
#401=AXIS2_PLACEMENT_3D('',#592,#478,#479);
#402=AXIS2_PLACEMENT_3D('',#596,#482,#483);
#403=AXIS2_PLACEMENT_3D('',#602,#487,#488);
#404=AXIS2_PLACEMENT_3D('',#603,#489,#490);
#405=AXIS2_PLACEMENT_3D('',#606,#492,#493);
#406=AXIS2_PLACEMENT_3D('',#607,#494,#495);
#407=AXIS2_PLACEMENT_3D('',#612,#498,#499);
#408=AXIS2_PLACEMENT_3D('',#613,#500,#501);
#409=AXIS2_PLACEMENT_3D('',#616,#503,#504);
#410=AXIS2_PLACEMENT_3D('',#618,#506,#507);
#411=AXIS2_PLACEMENT_3D('',#619,#508,#509);
#412=AXIS2_PLACEMENT_3D('',#620,#510,#511);
#413=AXIS2_PLACEMENT_3D('',#621,#512,#513);
#414=AXIS2_PLACEMENT_3D('',#622,#514,#515);
#415=AXIS2_PLACEMENT_3D('',#623,#516,#517);
#416=AXIS2_PLACEMENT_3D('',#624,#518,#519);
#417=AXIS2_PLACEMENT_3D('',#625,#520,#521);
#418=DIRECTION('',(0.,0.,1.,0.));
#419=DIRECTION('',(1.,0.,0.,0.));
#420=DIRECTION('',(1.,0.,0.));
#421=DIRECTION('',(0.,0.,-1.));
#422=DIRECTION('',(0.,0.,1.));
#423=DIRECTION('',(1.,0.,0.));
#424=DIRECTION('',(0.,0.,-1.));
#425=DIRECTION('',(0.,0.77714596145685,0.629320391049987));
#426=DIRECTION('',(1.,0.,0.));
#427=DIRECTION('',(0.,0.,-1.));
#428=DIRECTION('',(0.,0.,-1.));
#429=DIRECTION('',(1.,0.,0.));
#430=DIRECTION('',(0.,0.,-1.));
#431=DIRECTION('',(0.,-0.275637355817012,0.961261695938315));
#432=DIRECTION('',(0.,0.961261695938597,0.275637355816029));
#433=DIRECTION('',(0.,0.275637355817144,-0.961261695938277));
#434=DIRECTION('',(1.,0.,0.));
#435=DIRECTION('',(0.,0.,-1.));
#436=DIRECTION('',(0.,0.,1.));
#437=DIRECTION('',(1.,0.,0.));
#438=DIRECTION('',(0.,0.,-1.));
#439=DIRECTION('',(0.,-0.777145961456963,-0.629320391049847));
#440=DIRECTION('',(1.,0.,0.));
#441=DIRECTION('',(0.,0.,-1.));
#442=DIRECTION('',(0.,0.,-1.));
#443=DIRECTION('',(0.,-1.,0.));
#444=DIRECTION('',(0.,0.275637355816029,-0.961261695938597));
#445=DIRECTION('',(0.,0.961261695938597,0.275637355816029));
#446=DIRECTION('',(0.,0.961261695938597,0.275637355816029));
#447=DIRECTION('',(-1.,0.,0.));
#448=DIRECTION('',(1.,0.,0.));
#449=DIRECTION('',(0.,-0.961261695938277,-0.275637355817144));
#450=DIRECTION('',(0.,0.275637355817144,-0.961261695938277));
#451=DIRECTION('',(0.,-0.275637355817144,0.961261695938277));
#452=DIRECTION('',(1.,0.,0.));
#453=DIRECTION('',(0.,1.,0.));
#454=DIRECTION('',(0.,0.,1.));
#455=DIRECTION('',(0.,1.,0.));
#456=DIRECTION('',(0.,0.,1.));
#457=DIRECTION('',(0.,0.,-1.));
#458=DIRECTION('',(1.,0.,0.));
#459=DIRECTION('',(1.,0.,0.));
#460=DIRECTION('',(-1.,0.,0.));
#461=DIRECTION('',(0.,0.,1.));
#462=DIRECTION('',(1.,0.,0.));
#463=DIRECTION('',(0.,0.,-1.));
#464=DIRECTION('',(-1.,0.,0.));
#465=DIRECTION('',(0.,-0.629320391049847,0.777145961456963));
#466=DIRECTION('',(0.,-0.777145961456963,-0.629320391049847));
#467=DIRECTION('',(0.,0.777145961456963,0.629320391049847));
#468=DIRECTION('',(-1.,0.,0.));
#469=DIRECTION('',(0.,-1.,0.));
#470=DIRECTION('',(0.,0.,-1.));
#471=DIRECTION('',(-1.,0.,0.));
#472=DIRECTION('',(0.,0.,1.));
#473=DIRECTION('',(-1.,0.,0.));
#474=DIRECTION('',(0.,0.,1.));
#475=DIRECTION('',(0.,-1.,0.));
#476=DIRECTION('',(0.,1.,0.));
#477=DIRECTION('',(-1.,0.,0.));
#478=DIRECTION('',(0.,1.,0.));
#479=DIRECTION('',(0.,0.,1.));
#480=DIRECTION('',(0.,0.,-1.));
#481=DIRECTION('',(-1.,0.,0.));
#482=DIRECTION('',(0.,0.629320391049987,-0.77714596145685));
#483=DIRECTION('',(0.,0.77714596145685,0.629320391049987));
#484=DIRECTION('',(-1.,0.,0.));
#485=DIRECTION('',(0.,-0.77714596145685,-0.629320391049987));
#486=DIRECTION('',(1.,0.,0.));
#487=DIRECTION('',(1.,0.,0.));
#488=DIRECTION('',(0.,0.,-1.));
#489=DIRECTION('',(1.,0.,0.));
#490=DIRECTION('',(0.,0.,-1.));
#491=DIRECTION('',(1.,0.,0.));
#492=DIRECTION('',(0.,-1.,0.));
#493=DIRECTION('',(0.,0.,-1.));
#494=DIRECTION('',(0.,1.,0.));
#495=DIRECTION('',(0.,0.,1.));
#496=DIRECTION('',(0.,0.,1.));
#497=DIRECTION('',(1.,0.,0.));
#498=DIRECTION('',(1.,0.,0.));
#499=DIRECTION('',(0.,0.,-1.));
#500=DIRECTION('',(1.,0.,0.));
#501=DIRECTION('',(0.,0.,-1.));
#502=DIRECTION('',(1.,0.,0.));
#503=DIRECTION('',(0.,0.961261695938315,0.275637355817012));
#504=DIRECTION('',(0.,-0.275637355817012,0.961261695938315));
#505=DIRECTION('',(0.,0.275637355817012,-0.961261695938315));
#506=DIRECTION('',(-1.,0.,0.));
#507=DIRECTION('',(0.,0.,1.));
#508=DIRECTION('',(1.,0.,0.));
#509=DIRECTION('',(0.,0.,-1.));
#510=DIRECTION('',(1.,0.,0.));
#511=DIRECTION('',(0.,0.,-1.));
#512=DIRECTION('',(1.,0.,0.));
#513=DIRECTION('',(0.,0.,-1.));
#514=DIRECTION('',(1.,0.,0.));
#515=DIRECTION('',(0.,0.,-1.));
#516=DIRECTION('',(0.,1.,0.));
#517=DIRECTION('',(0.,0.,1.));
#518=DIRECTION('',(-1.,0.,0.));
#519=DIRECTION('',(0.,0.,1.));
#520=DIRECTION('',(1.,0.,0.));
#521=DIRECTION('',(0.,0.,-1.));
#522=CARTESIAN_POINT('',(0.,0.,0.));
#523=CARTESIAN_POINT('',(-1.,-0.05,3.062096423279));
#524=CARTESIAN_POINT('',(-1.,2.5,3.062096423279));
#525=CARTESIAN_POINT('',(-1.,2.5,1.29744749021152));
#526=CARTESIAN_POINT('',(-1.,2.5,3.002052383671));
#527=CARTESIAN_POINT('',(-1.,2.3,1.29744749021152));
#528=CARTESIAN_POINT('',(-1.,2.42586407821,1.14201829792015));
#529=CARTESIAN_POINT('',(-1.,1.86961140150836,0.691573761905));
#530=CARTESIAN_POINT('',(-1.,1.22199029328749,0.167140528907482));
#531=CARTESIAN_POINT('',(-1.,0.75,0.75));
#532=CARTESIAN_POINT('',(-1.,0.,0.75000000000012));
#533=CARTESIAN_POINT('',(-1.,0.,3.062096423279));
#534=CARTESIAN_POINT('',(-1.,0.,2.5000000000716));
#535=CARTESIAN_POINT('',(-1.,0.5,2.5));
#536=CARTESIAN_POINT('',(-1.,0.980630847949545,2.63781867797735));
#537=CARTESIAN_POINT('',(-1.,0.78991121288622,3.30293708802122));
#538=CARTESIAN_POINT('',(-1.,1.54017468027781,0.686457435153767));
#539=CARTESIAN_POINT('',(-1.,0.700263467388665,0.445616770411639));
#540=CARTESIAN_POINT('',(-1.,1.46327374460279,0.664406446688505));
#541=CARTESIAN_POINT('',(-1.,0.713010277210837,3.28088609955588));
#542=CARTESIAN_POINT('',(-1.,0.903729912274463,2.6157676895113));
#543=CARTESIAN_POINT('',(-1.,0.5,2.5));
#544=CARTESIAN_POINT('',(-1.,0.08,2.50000000007086));
#545=CARTESIAN_POINT('',(-1.,0.08,3.062096423279));
#546=CARTESIAN_POINT('',(-1.,0.08,0.749999999979445));
#547=CARTESIAN_POINT('',(-1.,0.75,0.75));
#548=CARTESIAN_POINT('',(-1.,1.1716446619871,0.229312205811053));
#549=CARTESIAN_POINT('',(-1.,1.81926577022389,0.753745438821271));
#550=CARTESIAN_POINT('',(-1.,2.38293203910498,1.2101933834118));
#551=CARTESIAN_POINT('',(-1.,2.32,1.28790797955749));
#552=CARTESIAN_POINT('',(-1.,2.42,1.28790797955749));
#553=CARTESIAN_POINT('',(-1.,2.42,3.062096423279));
#554=CARTESIAN_POINT('',(-1.,2.42,3.002052383671));
#555=CARTESIAN_POINT('',(-1.,-0.05,3.002052383671));
#556=CARTESIAN_POINT('',(-1.04,1.458210985204,0.6629547237917));
#557=CARTESIAN_POINT('',(1.,0.700263467388665,0.445616770411639));
#558=CARTESIAN_POINT('',(1.,1.46327374460279,0.664406446688505));
#559=CARTESIAN_POINT('',(1.,1.54017468027781,0.686457435153767));
#560=CARTESIAN_POINT('',(-1.04,1.46327374460279,0.664406446688505));
#561=CARTESIAN_POINT('',(-1.04,1.54017468027781,0.686457435153767));
#562=CARTESIAN_POINT('',(-1.04,0.8925390356479,2.654794914298));
#563=CARTESIAN_POINT('',(1.,0.8925390356479,2.654794914298));
#564=CARTESIAN_POINT('',(1.,0.903729912274464,2.6157676895113));
#565=CARTESIAN_POINT('',(-1.04,0.903729912274464,2.6157676895113));
#566=CARTESIAN_POINT('',(-1.04,0.08,0.715));
#567=CARTESIAN_POINT('',(0.,0.08,1.5));
#568=CARTESIAN_POINT('',(0.,0.08,1.90000000001));
#569=CARTESIAN_POINT('',(1.,0.08,0.715));
#570=CARTESIAN_POINT('',(1.,0.08,2.50000000007086));
#571=CARTESIAN_POINT('',(1.,0.08,0.749999999979445));
#572=CARTESIAN_POINT('',(-1.04,0.08,0.749999999979445));
#573=CARTESIAN_POINT('',(-1.04,0.08,2.50000000007086));
#574=CARTESIAN_POINT('',(-1.04,0.74999999999,0.749999999979445));
#575=CARTESIAN_POINT('',(1.,0.75,0.75));
#576=CARTESIAN_POINT('',(1.,1.1716446619871,0.229312205811052));
#577=CARTESIAN_POINT('',(-1.04,1.1716446619871,0.229312205811051));
#578=CARTESIAN_POINT('',(-1.04,2.44496710676,1.260428390697));
#579=CARTESIAN_POINT('',(1.,2.44496710676,1.260428390697));
#580=CARTESIAN_POINT('',(1.,2.38293203910498,1.2101933834118));
#581=CARTESIAN_POINT('',(-1.,2.38293203910498,1.2101933834118));
#582=CARTESIAN_POINT('',(-1.04,2.42,3.037289222819));
#583=CARTESIAN_POINT('',(1.,2.42,1.28790797955749));
#584=CARTESIAN_POINT('',(1.,2.42,1.28790797955749));
#585=CARTESIAN_POINT('',(1.,2.42,3.037289222819));
#586=CARTESIAN_POINT('',(1.,2.42,3.002052383671));
#587=CARTESIAN_POINT('',(-1.04,2.42,3.002052383671));
#588=CARTESIAN_POINT('',(-1.04,2.505266785746,3.002052383671));
#589=CARTESIAN_POINT('',(1.,2.505266785746,3.002052383671));
#590=CARTESIAN_POINT('',(1.,2.5,3.002052383671));
#591=CARTESIAN_POINT('',(-1.04,2.5,3.002052383671));
#592=CARTESIAN_POINT('',(-1.04,2.5,1.166052383671));
#593=CARTESIAN_POINT('',(1.,2.5,1.166052383671));
#594=CARTESIAN_POINT('',(1.,2.5,1.29744749021152));
#595=CARTESIAN_POINT('',(-1.04,2.5,1.29744749021152));
#596=CARTESIAN_POINT('',(-1.04,1.196430099153,0.146442291812));
#597=CARTESIAN_POINT('',(-1.04,2.42586407821,1.14201829792015));
#598=CARTESIAN_POINT('',(1.,2.42586407821,1.14201829792015));
#599=CARTESIAN_POINT('',(1.,1.196430099153,0.146442291812));
#600=CARTESIAN_POINT('',(1.,1.22199029328749,0.167140528907483));
#601=CARTESIAN_POINT('',(-1.04,1.22199029328749,0.167140528907483));
#602=CARTESIAN_POINT('',(-1.04,0.75,0.75000000000012));
#603=CARTESIAN_POINT('',(1.,0.75,0.75));
#604=CARTESIAN_POINT('',(1.,0.,0.75000000000012));
#605=CARTESIAN_POINT('',(-1.04,0.,0.75000000000012));
#606=CARTESIAN_POINT('',(-1.04,0.,2.535));
#607=CARTESIAN_POINT('',(0.,0.,1.5));
#608=CARTESIAN_POINT('',(0.,0.,1.90000000001));
#609=CARTESIAN_POINT('',(1.,0.,2.535));
#610=CARTESIAN_POINT('',(1.,0.,2.5000000000716));
#611=CARTESIAN_POINT('',(-1.04,0.,2.5000000000716));
#612=CARTESIAN_POINT('',(-1.04,0.49999999999,2.5000000000716));
#613=CARTESIAN_POINT('',(1.,0.5,2.5));
#614=CARTESIAN_POINT('',(1.,0.980630847949545,2.63781867797735));
#615=CARTESIAN_POINT('',(-1.04,0.980630847949545,2.63781867797735));
#616=CARTESIAN_POINT('',(-1.04,1.551365556924,0.6474302102986));
#617=CARTESIAN_POINT('',(1.,1.551365556924,0.6474302102986));
#618=CARTESIAN_POINT('',(-1.04,0.49999999999,2.50000000007086));
#619=CARTESIAN_POINT('',(1.,0.5,2.5));
#620=CARTESIAN_POINT('',(1.,-0.05,3.062096423279));
#621=CARTESIAN_POINT('',(1.,2.3,1.29744749021152));
#622=CARTESIAN_POINT('',(1.,2.32,1.28790797955749));
#623=CARTESIAN_POINT('',(0.,0.040000000000001,1.5));
#624=CARTESIAN_POINT('',(-1.04,2.3,1.29744749021152));
#625=CARTESIAN_POINT('',(-1.04,2.32,1.28790797955749));
#626=MECHANICAL_DESIGN_GEOMETRIC_PRESENTATION_REPRESENTATION('',(#373),
#627);
#627=(
GEOMETRIC_REPRESENTATION_CONTEXT(3)
GLOBAL_UNCERTAINTY_ASSIGNED_CONTEXT((#628))
GLOBAL_UNIT_ASSIGNED_CONTEXT((#631,#630,#629))
REPRESENTATION_CONTEXT('33108x302025','TOP_LEVEL_ASSEMBLY_PART')
);
#628=UNCERTAINTY_MEASURE_WITH_UNIT(LENGTH_MEASURE(0.005),#631,
'DISTANCE_ACCURACY_VALUE','Maximum Tolerance applied to model');
#629=(
NAMED_UNIT(*)
SI_UNIT($,.STERADIAN.)
SOLID_ANGLE_UNIT()
);
#630=(
NAMED_UNIT(*)
PLANE_ANGLE_UNIT()
SI_UNIT($,.RADIAN.)
);
#631=(
LENGTH_UNIT()
NAMED_UNIT(*)
SI_UNIT(.MILLI.,.METRE.)
);
#632=PRODUCT_DEFINITION_SHAPE('','',#633);
#633=PRODUCT_DEFINITION('','',#635,#634);
#634=PRODUCT_DEFINITION_CONTEXT('',#641,'design');
#635=PRODUCT_DEFINITION_FORMATION_WITH_SPECIFIED_SOURCE('','',#637,
 .NOT_KNOWN.);
#636=PRODUCT_RELATED_PRODUCT_CATEGORY('','',(#637));
#637=PRODUCT('33108x302025','33108x302025','33108x302025',(#639));
#638=PRODUCT_CATEGORY('','');
#639=PRODUCT_CONTEXT('',#641,'mechanical');
#640=APPLICATION_PROTOCOL_DEFINITION('international standard',
'automotive_design',2010,#641);
#641=APPLICATION_CONTEXT(
'core data for automotive mechanical design processes');
ENDSEC;
END-ISO-10303-21;
