ISO-10303-21;
HEADER;
/* Generated by software containing ST-Developer
 * from STEP Tools, Inc. (www.steptools.com) 
 */
/* OPTION: strings as raw bytes, not using required /X/ escapes */

FILE_DESCRIPTION(
/* description */ ('Unknown'),
/* implementation_level */ '2;1');

FILE_NAME(
/* name */ '0201',
/* time_stamp */ '2018-11-22T15:31:50+01:00',
/* author */ ('Unknown'),
/* organization */ ('Unknown'),
/* preprocessor_version */ 'ST-DEVELOPER v16.7',
/* originating_system */ 'DEX',
/* authorisation */ $);

FILE_SCHEMA (('AUTOMOTIVE_DESIGN {1 0 10303 214 3 1 1}'));
ENDSEC;

DATA;
#10=PROPERTY_DEFINITION_REPRESENTATION(#14,#12);
#11=PROPERTY_DEFINITION_REPRESENTATION(#15,#13);
#12=REPRESENTATION('',(#16),#522);
#13=REPRESENTATION('',(#17),#522);
#14=PROPERTY_DEFINITION('pmi validation property','',#531);
#15=PROPERTY_DEFINITION('pmi validation property','',#531);
#16=VALUE_REPRESENTATION_ITEM('number of annotations',COUNT_MEASURE(0.));
#17=VALUE_REPRESENTATION_ITEM('number of views',COUNT_MEASURE(0.));
#18=DRAUGHTING_PRE_DEFINED_COLOUR('black');
#19=CONTEXT_DEPENDENT_SHAPE_REPRESENTATION(#23,#533);
#20=CONTEXT_DEPENDENT_SHAPE_REPRESENTATION(#24,#535);
#21=NEXT_ASSEMBLY_USAGE_OCCURRENCE('Pins','Pins','Pins',#536,#537,'');
#22=NEXT_ASSEMBLY_USAGE_OCCURRENCE('Body','Body','Body',#536,#538,'');
#23=(
REPRESENTATION_RELATIONSHIP(' ',' ',#338,#339)
REPRESENTATION_RELATIONSHIP_WITH_TRANSFORMATION(#25)
SHAPE_REPRESENTATION_RELATIONSHIP()
);
#24=(
REPRESENTATION_RELATIONSHIP(' ',' ',#340,#339)
REPRESENTATION_RELATIONSHIP_WITH_TRANSFORMATION(#26)
SHAPE_REPRESENTATION_RELATIONSHIP()
);
#25=ITEM_DEFINED_TRANSFORMATION(' ',' ',#341,#354);
#26=ITEM_DEFINED_TRANSFORMATION(' ',' ',#341,#361);
#27=SHAPE_REPRESENTATION_RELATIONSHIP('','',#338,#29);
#28=SHAPE_REPRESENTATION_RELATIONSHIP('','',#340,#30);
#29=ADVANCED_BREP_SHAPE_REPRESENTATION('',(#332,#333),#523);
#30=ADVANCED_BREP_SHAPE_REPRESENTATION('',(#334),#524);
#31=ORIENTED_EDGE('',*,*,#103,.T.);
#32=ORIENTED_EDGE('',*,*,#104,.F.);
#33=ORIENTED_EDGE('',*,*,#105,.F.);
#34=ORIENTED_EDGE('',*,*,#106,.T.);
#35=ORIENTED_EDGE('',*,*,#107,.T.);
#36=ORIENTED_EDGE('',*,*,#108,.F.);
#37=ORIENTED_EDGE('',*,*,#109,.F.);
#38=ORIENTED_EDGE('',*,*,#104,.T.);
#39=ORIENTED_EDGE('',*,*,#110,.T.);
#40=ORIENTED_EDGE('',*,*,#111,.F.);
#41=ORIENTED_EDGE('',*,*,#112,.F.);
#42=ORIENTED_EDGE('',*,*,#108,.T.);
#43=ORIENTED_EDGE('',*,*,#113,.T.);
#44=ORIENTED_EDGE('',*,*,#106,.F.);
#45=ORIENTED_EDGE('',*,*,#114,.F.);
#46=ORIENTED_EDGE('',*,*,#111,.T.);
#47=ORIENTED_EDGE('',*,*,#105,.T.);
#48=ORIENTED_EDGE('',*,*,#109,.T.);
#49=ORIENTED_EDGE('',*,*,#112,.T.);
#50=ORIENTED_EDGE('',*,*,#114,.T.);
#51=ORIENTED_EDGE('',*,*,#103,.F.);
#52=ORIENTED_EDGE('',*,*,#113,.F.);
#53=ORIENTED_EDGE('',*,*,#110,.F.);
#54=ORIENTED_EDGE('',*,*,#107,.F.);
#55=ORIENTED_EDGE('',*,*,#115,.F.);
#56=ORIENTED_EDGE('',*,*,#116,.F.);
#57=ORIENTED_EDGE('',*,*,#117,.T.);
#58=ORIENTED_EDGE('',*,*,#118,.T.);
#59=ORIENTED_EDGE('',*,*,#119,.F.);
#60=ORIENTED_EDGE('',*,*,#118,.F.);
#61=ORIENTED_EDGE('',*,*,#120,.T.);
#62=ORIENTED_EDGE('',*,*,#121,.T.);
#63=ORIENTED_EDGE('',*,*,#122,.F.);
#64=ORIENTED_EDGE('',*,*,#121,.F.);
#65=ORIENTED_EDGE('',*,*,#123,.T.);
#66=ORIENTED_EDGE('',*,*,#124,.T.);
#67=ORIENTED_EDGE('',*,*,#125,.F.);
#68=ORIENTED_EDGE('',*,*,#124,.F.);
#69=ORIENTED_EDGE('',*,*,#126,.T.);
#70=ORIENTED_EDGE('',*,*,#116,.T.);
#71=ORIENTED_EDGE('',*,*,#117,.F.);
#72=ORIENTED_EDGE('',*,*,#126,.F.);
#73=ORIENTED_EDGE('',*,*,#123,.F.);
#74=ORIENTED_EDGE('',*,*,#120,.F.);
#75=ORIENTED_EDGE('',*,*,#115,.T.);
#76=ORIENTED_EDGE('',*,*,#119,.T.);
#77=ORIENTED_EDGE('',*,*,#122,.T.);
#78=ORIENTED_EDGE('',*,*,#125,.T.);
#79=ORIENTED_EDGE('',*,*,#127,.T.);
#80=ORIENTED_EDGE('',*,*,#128,.F.);
#81=ORIENTED_EDGE('',*,*,#129,.F.);
#82=ORIENTED_EDGE('',*,*,#130,.T.);
#83=ORIENTED_EDGE('',*,*,#131,.T.);
#84=ORIENTED_EDGE('',*,*,#132,.F.);
#85=ORIENTED_EDGE('',*,*,#133,.F.);
#86=ORIENTED_EDGE('',*,*,#128,.T.);
#87=ORIENTED_EDGE('',*,*,#134,.T.);
#88=ORIENTED_EDGE('',*,*,#135,.F.);
#89=ORIENTED_EDGE('',*,*,#136,.F.);
#90=ORIENTED_EDGE('',*,*,#132,.T.);
#91=ORIENTED_EDGE('',*,*,#137,.T.);
#92=ORIENTED_EDGE('',*,*,#130,.F.);
#93=ORIENTED_EDGE('',*,*,#138,.F.);
#94=ORIENTED_EDGE('',*,*,#135,.T.);
#95=ORIENTED_EDGE('',*,*,#129,.T.);
#96=ORIENTED_EDGE('',*,*,#133,.T.);
#97=ORIENTED_EDGE('',*,*,#136,.T.);
#98=ORIENTED_EDGE('',*,*,#138,.T.);
#99=ORIENTED_EDGE('',*,*,#127,.F.);
#100=ORIENTED_EDGE('',*,*,#137,.F.);
#101=ORIENTED_EDGE('',*,*,#134,.F.);
#102=ORIENTED_EDGE('',*,*,#131,.F.);
#103=EDGE_CURVE('',#139,#140,#163,.T.);
#104=EDGE_CURVE('',#141,#140,#164,.T.);
#105=EDGE_CURVE('',#142,#141,#165,.T.);
#106=EDGE_CURVE('',#142,#139,#166,.T.);
#107=EDGE_CURVE('',#140,#143,#167,.T.);
#108=EDGE_CURVE('',#144,#143,#168,.T.);
#109=EDGE_CURVE('',#141,#144,#169,.T.);
#110=EDGE_CURVE('',#143,#145,#170,.T.);
#111=EDGE_CURVE('',#146,#145,#171,.T.);
#112=EDGE_CURVE('',#144,#146,#172,.T.);
#113=EDGE_CURVE('',#145,#139,#173,.T.);
#114=EDGE_CURVE('',#146,#142,#174,.T.);
#115=EDGE_CURVE('',#147,#148,#175,.T.);
#116=EDGE_CURVE('',#149,#147,#176,.T.);
#117=EDGE_CURVE('',#149,#150,#177,.T.);
#118=EDGE_CURVE('',#150,#148,#178,.T.);
#119=EDGE_CURVE('',#148,#151,#179,.T.);
#120=EDGE_CURVE('',#150,#152,#180,.T.);
#121=EDGE_CURVE('',#152,#151,#181,.T.);
#122=EDGE_CURVE('',#151,#153,#182,.T.);
#123=EDGE_CURVE('',#152,#154,#183,.T.);
#124=EDGE_CURVE('',#154,#153,#184,.T.);
#125=EDGE_CURVE('',#153,#147,#185,.T.);
#126=EDGE_CURVE('',#154,#149,#186,.T.);
#127=EDGE_CURVE('',#155,#156,#187,.T.);
#128=EDGE_CURVE('',#157,#156,#188,.T.);
#129=EDGE_CURVE('',#158,#157,#189,.T.);
#130=EDGE_CURVE('',#158,#155,#190,.T.);
#131=EDGE_CURVE('',#156,#159,#191,.T.);
#132=EDGE_CURVE('',#160,#159,#192,.T.);
#133=EDGE_CURVE('',#157,#160,#193,.T.);
#134=EDGE_CURVE('',#159,#161,#194,.T.);
#135=EDGE_CURVE('',#162,#161,#195,.T.);
#136=EDGE_CURVE('',#160,#162,#196,.T.);
#137=EDGE_CURVE('',#161,#155,#197,.T.);
#138=EDGE_CURVE('',#162,#158,#198,.T.);
#139=VERTEX_POINT('',#443);
#140=VERTEX_POINT('',#444);
#141=VERTEX_POINT('',#446);
#142=VERTEX_POINT('',#448);
#143=VERTEX_POINT('',#452);
#144=VERTEX_POINT('',#454);
#145=VERTEX_POINT('',#458);
#146=VERTEX_POINT('',#460);
#147=VERTEX_POINT('',#469);
#148=VERTEX_POINT('',#470);
#149=VERTEX_POINT('',#472);
#150=VERTEX_POINT('',#474);
#151=VERTEX_POINT('',#478);
#152=VERTEX_POINT('',#480);
#153=VERTEX_POINT('',#484);
#154=VERTEX_POINT('',#486);
#155=VERTEX_POINT('',#496);
#156=VERTEX_POINT('',#497);
#157=VERTEX_POINT('',#499);
#158=VERTEX_POINT('',#501);
#159=VERTEX_POINT('',#505);
#160=VERTEX_POINT('',#507);
#161=VERTEX_POINT('',#511);
#162=VERTEX_POINT('',#513);
#163=LINE('',#442,#199);
#164=LINE('',#445,#200);
#165=LINE('',#447,#201);
#166=LINE('',#449,#202);
#167=LINE('',#451,#203);
#168=LINE('',#453,#204);
#169=LINE('',#455,#205);
#170=LINE('',#457,#206);
#171=LINE('',#459,#207);
#172=LINE('',#461,#208);
#173=LINE('',#463,#209);
#174=LINE('',#464,#210);
#175=LINE('',#468,#211);
#176=LINE('',#471,#212);
#177=LINE('',#473,#213);
#178=LINE('',#475,#214);
#179=LINE('',#477,#215);
#180=LINE('',#479,#216);
#181=LINE('',#481,#217);
#182=LINE('',#483,#218);
#183=LINE('',#485,#219);
#184=LINE('',#487,#220);
#185=LINE('',#489,#221);
#186=LINE('',#490,#222);
#187=LINE('',#495,#223);
#188=LINE('',#498,#224);
#189=LINE('',#500,#225);
#190=LINE('',#502,#226);
#191=LINE('',#504,#227);
#192=LINE('',#506,#228);
#193=LINE('',#508,#229);
#194=LINE('',#510,#230);
#195=LINE('',#512,#231);
#196=LINE('',#514,#232);
#197=LINE('',#516,#233);
#198=LINE('',#517,#234);
#199=VECTOR('',#366,1000.);
#200=VECTOR('',#367,1000.);
#201=VECTOR('',#368,1000.);
#202=VECTOR('',#369,1000.);
#203=VECTOR('',#372,1000.);
#204=VECTOR('',#373,1000.);
#205=VECTOR('',#374,1000.);
#206=VECTOR('',#377,1000.);
#207=VECTOR('',#378,1000.);
#208=VECTOR('',#379,1000.);
#209=VECTOR('',#382,1000.);
#210=VECTOR('',#383,1000.);
#211=VECTOR('',#390,1000.);
#212=VECTOR('',#391,1000.);
#213=VECTOR('',#392,1000.);
#214=VECTOR('',#393,1000.);
#215=VECTOR('',#396,1000.);
#216=VECTOR('',#397,1000.);
#217=VECTOR('',#398,1000.);
#218=VECTOR('',#401,1000.);
#219=VECTOR('',#402,1000.);
#220=VECTOR('',#403,1000.);
#221=VECTOR('',#406,1000.);
#222=VECTOR('',#407,1000.);
#223=VECTOR('',#416,1000.);
#224=VECTOR('',#417,1000.);
#225=VECTOR('',#418,1000.);
#226=VECTOR('',#419,1000.);
#227=VECTOR('',#422,1000.);
#228=VECTOR('',#423,1000.);
#229=VECTOR('',#424,1000.);
#230=VECTOR('',#427,1000.);
#231=VECTOR('',#428,1000.);
#232=VECTOR('',#429,1000.);
#233=VECTOR('',#432,1000.);
#234=VECTOR('',#433,1000.);
#235=EDGE_LOOP('',(#31,#32,#33,#34));
#236=EDGE_LOOP('',(#35,#36,#37,#38));
#237=EDGE_LOOP('',(#39,#40,#41,#42));
#238=EDGE_LOOP('',(#43,#44,#45,#46));
#239=EDGE_LOOP('',(#47,#48,#49,#50));
#240=EDGE_LOOP('',(#51,#52,#53,#54));
#241=EDGE_LOOP('',(#55,#56,#57,#58));
#242=EDGE_LOOP('',(#59,#60,#61,#62));
#243=EDGE_LOOP('',(#63,#64,#65,#66));
#244=EDGE_LOOP('',(#67,#68,#69,#70));
#245=EDGE_LOOP('',(#71,#72,#73,#74));
#246=EDGE_LOOP('',(#75,#76,#77,#78));
#247=EDGE_LOOP('',(#79,#80,#81,#82));
#248=EDGE_LOOP('',(#83,#84,#85,#86));
#249=EDGE_LOOP('',(#87,#88,#89,#90));
#250=EDGE_LOOP('',(#91,#92,#93,#94));
#251=EDGE_LOOP('',(#95,#96,#97,#98));
#252=EDGE_LOOP('',(#99,#100,#101,#102));
#253=FACE_BOUND('',#235,.T.);
#254=FACE_BOUND('',#236,.T.);
#255=FACE_BOUND('',#237,.T.);
#256=FACE_BOUND('',#238,.T.);
#257=FACE_BOUND('',#239,.T.);
#258=FACE_BOUND('',#240,.T.);
#259=FACE_BOUND('',#241,.T.);
#260=FACE_BOUND('',#242,.T.);
#261=FACE_BOUND('',#243,.T.);
#262=FACE_BOUND('',#244,.T.);
#263=FACE_BOUND('',#245,.T.);
#264=FACE_BOUND('',#246,.T.);
#265=FACE_BOUND('',#247,.T.);
#266=FACE_BOUND('',#248,.T.);
#267=FACE_BOUND('',#249,.T.);
#268=FACE_BOUND('',#250,.T.);
#269=FACE_BOUND('',#251,.T.);
#270=FACE_BOUND('',#252,.T.);
#271=PLANE('',#342);
#272=PLANE('',#343);
#273=PLANE('',#344);
#274=PLANE('',#345);
#275=PLANE('',#346);
#276=PLANE('',#347);
#277=PLANE('',#348);
#278=PLANE('',#349);
#279=PLANE('',#350);
#280=PLANE('',#351);
#281=PLANE('',#352);
#282=PLANE('',#353);
#283=PLANE('',#355);
#284=PLANE('',#356);
#285=PLANE('',#357);
#286=PLANE('',#358);
#287=PLANE('',#359);
#288=PLANE('',#360);
#289=ADVANCED_FACE('',(#253),#271,.F.);
#290=ADVANCED_FACE('',(#254),#272,.F.);
#291=ADVANCED_FACE('',(#255),#273,.F.);
#292=ADVANCED_FACE('',(#256),#274,.F.);
#293=ADVANCED_FACE('',(#257),#275,.T.);
#294=ADVANCED_FACE('',(#258),#276,.F.);
#295=ADVANCED_FACE('',(#259),#277,.T.);
#296=ADVANCED_FACE('',(#260),#278,.T.);
#297=ADVANCED_FACE('',(#261),#279,.T.);
#298=ADVANCED_FACE('',(#262),#280,.T.);
#299=ADVANCED_FACE('',(#263),#281,.F.);
#300=ADVANCED_FACE('',(#264),#282,.T.);
#301=ADVANCED_FACE('',(#265),#283,.F.);
#302=ADVANCED_FACE('',(#266),#284,.F.);
#303=ADVANCED_FACE('',(#267),#285,.F.);
#304=ADVANCED_FACE('',(#268),#286,.F.);
#305=ADVANCED_FACE('',(#269),#287,.T.);
#306=ADVANCED_FACE('',(#270),#288,.F.);
#307=CLOSED_SHELL('',(#289,#290,#291,#292,#293,#294));
#308=CLOSED_SHELL('',(#295,#296,#297,#298,#299,#300));
#309=CLOSED_SHELL('',(#301,#302,#303,#304,#305,#306));
#310=STYLED_ITEM('',(#313),#332);
#311=STYLED_ITEM('',(#314),#333);
#312=STYLED_ITEM('',(#315),#334);
#313=PRESENTATION_STYLE_ASSIGNMENT((#316));
#314=PRESENTATION_STYLE_ASSIGNMENT((#317));
#315=PRESENTATION_STYLE_ASSIGNMENT((#318));
#316=SURFACE_STYLE_USAGE(.BOTH.,#319);
#317=SURFACE_STYLE_USAGE(.BOTH.,#320);
#318=SURFACE_STYLE_USAGE(.BOTH.,#321);
#319=SURFACE_SIDE_STYLE('',(#322));
#320=SURFACE_SIDE_STYLE('',(#323));
#321=SURFACE_SIDE_STYLE('',(#324));
#322=SURFACE_STYLE_FILL_AREA(#325);
#323=SURFACE_STYLE_FILL_AREA(#326);
#324=SURFACE_STYLE_FILL_AREA(#327);
#325=FILL_AREA_STYLE('',(#328));
#326=FILL_AREA_STYLE('',(#329));
#327=FILL_AREA_STYLE('',(#330));
#328=FILL_AREA_STYLE_COLOUR('',#331);
#329=FILL_AREA_STYLE_COLOUR('',#331);
#330=FILL_AREA_STYLE_COLOUR('',#18);
#331=COLOUR_RGB('',0.699999988079071,0.699999988079071,0.699999988079071);
#332=MANIFOLD_SOLID_BREP('',#307);
#333=MANIFOLD_SOLID_BREP('',#308);
#334=MANIFOLD_SOLID_BREP('',#309);
#335=SHAPE_DEFINITION_REPRESENTATION(#532,#338);
#336=SHAPE_DEFINITION_REPRESENTATION(#531,#339);
#337=SHAPE_DEFINITION_REPRESENTATION(#534,#340);
#338=SHAPE_REPRESENTATION('Pins',(#341),#523);
#339=SHAPE_REPRESENTATION('0201.par',(#341,#354,#361),#522);
#340=SHAPE_REPRESENTATION('Body',(#341),#524);
#341=AXIS2_PLACEMENT_3D('',#440,#362,#363);
#342=AXIS2_PLACEMENT_3D('',#441,#364,#365);
#343=AXIS2_PLACEMENT_3D('',#450,#370,#371);
#344=AXIS2_PLACEMENT_3D('',#456,#375,#376);
#345=AXIS2_PLACEMENT_3D('',#462,#380,#381);
#346=AXIS2_PLACEMENT_3D('',#465,#384,#385);
#347=AXIS2_PLACEMENT_3D('',#466,#386,#387);
#348=AXIS2_PLACEMENT_3D('',#467,#388,#389);
#349=AXIS2_PLACEMENT_3D('',#476,#394,#395);
#350=AXIS2_PLACEMENT_3D('',#482,#399,#400);
#351=AXIS2_PLACEMENT_3D('',#488,#404,#405);
#352=AXIS2_PLACEMENT_3D('',#491,#408,#409);
#353=AXIS2_PLACEMENT_3D('',#492,#410,#411);
#354=AXIS2_PLACEMENT_3D('',#493,#412,#413);
#355=AXIS2_PLACEMENT_3D('',#494,#414,#415);
#356=AXIS2_PLACEMENT_3D('',#503,#420,#421);
#357=AXIS2_PLACEMENT_3D('',#509,#425,#426);
#358=AXIS2_PLACEMENT_3D('',#515,#430,#431);
#359=AXIS2_PLACEMENT_3D('',#518,#434,#435);
#360=AXIS2_PLACEMENT_3D('',#519,#436,#437);
#361=AXIS2_PLACEMENT_3D('',#520,#438,#439);
#362=DIRECTION('',(0.,0.,1.));
#363=DIRECTION('',(1.,0.,0.));
#364=DIRECTION('',(-5.42101086242752E-16,0.,1.));
#365=DIRECTION('',(1.,0.,5.42101086242752E-16));
#366=DIRECTION('',(1.,0.,5.42101086242752E-16));
#367=DIRECTION('',(0.,1.,0.));
#368=DIRECTION('',(1.,0.,5.42101086242752E-16));
#369=DIRECTION('',(0.,1.,0.));
#370=DIRECTION('',(-1.,0.,0.));
#371=DIRECTION('',(0.,0.,1.));
#372=DIRECTION('',(0.,0.,1.));
#373=DIRECTION('',(0.,1.,0.));
#374=DIRECTION('',(0.,0.,1.));
#375=DIRECTION('',(5.42101086242752E-16,0.,-1.));
#376=DIRECTION('',(-1.,0.,-5.42101086242752E-16));
#377=DIRECTION('',(-1.,0.,-5.42101086242752E-16));
#378=DIRECTION('',(0.,1.,0.));
#379=DIRECTION('',(-1.,0.,-5.42101086242752E-16));
#380=DIRECTION('',(1.,0.,0.));
#381=DIRECTION('',(0.,0.,-1.));
#382=DIRECTION('',(0.,0.,-1.));
#383=DIRECTION('',(0.,0.,-1.));
#384=DIRECTION('',(0.,-1.,0.));
#385=DIRECTION('',(0.,0.,-1.));
#386=DIRECTION('',(0.,-1.,0.));
#387=DIRECTION('',(0.,0.,-1.));
#388=DIRECTION('',(0.,0.,-1.));
#389=DIRECTION('',(-1.,0.,0.));
#390=DIRECTION('',(-1.,0.,0.));
#391=DIRECTION('',(0.,1.,0.));
#392=DIRECTION('',(-1.,0.,0.));
#393=DIRECTION('',(0.,1.,0.));
#394=DIRECTION('',(-1.,0.,-9.03501810404587E-17));
#395=DIRECTION('',(-9.03501810404587E-17,0.,1.));
#396=DIRECTION('',(-9.03501810404587E-17,0.,1.));
#397=DIRECTION('',(-9.03501810404587E-17,0.,1.));
#398=DIRECTION('',(0.,1.,0.));
#399=DIRECTION('',(0.,0.,1.));
#400=DIRECTION('',(1.,0.,0.));
#401=DIRECTION('',(1.,0.,0.));
#402=DIRECTION('',(1.,0.,0.));
#403=DIRECTION('',(0.,1.,0.));
#404=DIRECTION('',(1.,0.,0.));
#405=DIRECTION('',(0.,0.,-1.));
#406=DIRECTION('',(0.,0.,-1.));
#407=DIRECTION('',(0.,0.,-1.));
#408=DIRECTION('',(0.,1.,0.));
#409=DIRECTION('',(0.,0.,1.));
#410=DIRECTION('',(0.,1.,0.));
#411=DIRECTION('',(0.,0.,1.));
#412=DIRECTION('',(0.,0.,1.));
#413=DIRECTION('',(1.,0.,0.));
#414=DIRECTION('',(1.,2.89120579329468E-15,0.));
#415=DIRECTION('',(-2.89120579329468E-15,1.,0.));
#416=DIRECTION('',(2.89120579329468E-15,-1.,0.));
#417=DIRECTION('',(0.,0.,-1.));
#418=DIRECTION('',(2.89120579329468E-15,-1.,0.));
#419=DIRECTION('',(0.,0.,-1.));
#420=DIRECTION('',(0.,1.,0.));
#421=DIRECTION('',(0.,0.,1.));
#422=DIRECTION('',(1.,0.,0.));
#423=DIRECTION('',(0.,0.,-1.));
#424=DIRECTION('',(1.,0.,0.));
#425=DIRECTION('',(-1.,-5.6920614055489E-15,0.));
#426=DIRECTION('',(5.6920614055489E-15,-1.,0.));
#427=DIRECTION('',(-5.6920614055489E-15,1.,0.));
#428=DIRECTION('',(0.,0.,-1.));
#429=DIRECTION('',(-5.6920614055489E-15,1.,0.));
#430=DIRECTION('',(0.,-1.,0.));
#431=DIRECTION('',(0.,0.,-1.));
#432=DIRECTION('',(-1.,0.,0.));
#433=DIRECTION('',(-1.,0.,0.));
#434=DIRECTION('',(0.,0.,1.));
#435=DIRECTION('',(1.,0.,0.));
#436=DIRECTION('',(0.,0.,1.));
#437=DIRECTION('',(1.,0.,0.));
#438=DIRECTION('',(-1.,-6.10286882037975E-34,-5.4210108624275E-16));
#439=DIRECTION('',(-5.4210108624275E-16,-2.43938494971954E-16,1.));
#440=CARTESIAN_POINT('',(0.,0.,0.));
#441=CARTESIAN_POINT('',(-0.3,-0.15,-0.15));
#442=CARTESIAN_POINT('',(-0.3,0.15,-0.15));
#443=CARTESIAN_POINT('',(-0.3,0.15,-0.15));
#444=CARTESIAN_POINT('',(-0.15,0.15,-0.15));
#445=CARTESIAN_POINT('',(-0.15,-0.15,-0.15));
#446=CARTESIAN_POINT('',(-0.15,-0.15,-0.15));
#447=CARTESIAN_POINT('',(-0.3,-0.15,-0.15));
#448=CARTESIAN_POINT('',(-0.3,-0.15,-0.15));
#449=CARTESIAN_POINT('',(-0.3,-0.15,-0.15));
#450=CARTESIAN_POINT('',(-0.15,-0.15,-0.15));
#451=CARTESIAN_POINT('',(-0.15,0.15,-0.15));
#452=CARTESIAN_POINT('',(-0.15,0.15,0.15));
#453=CARTESIAN_POINT('',(-0.15,-0.15,0.15));
#454=CARTESIAN_POINT('',(-0.15,-0.15,0.15));
#455=CARTESIAN_POINT('',(-0.15,-0.15,-0.15));
#456=CARTESIAN_POINT('',(-0.15,-0.15,0.15));
#457=CARTESIAN_POINT('',(-0.15,0.15,0.15));
#458=CARTESIAN_POINT('',(-0.3,0.15,0.15));
#459=CARTESIAN_POINT('',(-0.3,-0.15,0.15));
#460=CARTESIAN_POINT('',(-0.3,-0.15,0.15));
#461=CARTESIAN_POINT('',(-0.15,-0.15,0.15));
#462=CARTESIAN_POINT('',(-0.3,-0.15,0.15));
#463=CARTESIAN_POINT('',(-0.3,0.15,0.15));
#464=CARTESIAN_POINT('',(-0.3,-0.15,0.15));
#465=CARTESIAN_POINT('',(0.,-0.15,0.));
#466=CARTESIAN_POINT('',(0.,0.15,0.));
#467=CARTESIAN_POINT('',(0.3,-0.15,-0.15));
#468=CARTESIAN_POINT('',(0.3,0.15,-0.15));
#469=CARTESIAN_POINT('',(0.3,0.15,-0.15));
#470=CARTESIAN_POINT('',(0.15,0.15,-0.15));
#471=CARTESIAN_POINT('',(0.3,-0.15,-0.15));
#472=CARTESIAN_POINT('',(0.3,-0.15,-0.15));
#473=CARTESIAN_POINT('',(0.3,-0.15,-0.15));
#474=CARTESIAN_POINT('',(0.15,-0.15,-0.15));
#475=CARTESIAN_POINT('',(0.15,-0.15,-0.15));
#476=CARTESIAN_POINT('',(0.15,-0.15,-0.15));
#477=CARTESIAN_POINT('',(0.15,0.15,-0.15));
#478=CARTESIAN_POINT('',(0.15,0.15,0.15));
#479=CARTESIAN_POINT('',(0.15,-0.15,-0.15));
#480=CARTESIAN_POINT('',(0.15,-0.15,0.15));
#481=CARTESIAN_POINT('',(0.15,-0.15,0.15));
#482=CARTESIAN_POINT('',(0.15,-0.15,0.15));
#483=CARTESIAN_POINT('',(0.15,0.15,0.15));
#484=CARTESIAN_POINT('',(0.3,0.15,0.15));
#485=CARTESIAN_POINT('',(0.15,-0.15,0.15));
#486=CARTESIAN_POINT('',(0.3,-0.15,0.15));
#487=CARTESIAN_POINT('',(0.3,-0.15,0.15));
#488=CARTESIAN_POINT('',(0.3,-0.15,0.15));
#489=CARTESIAN_POINT('',(0.3,0.15,0.15));
#490=CARTESIAN_POINT('',(0.3,-0.15,0.15));
#491=CARTESIAN_POINT('',(0.,-0.15,0.));
#492=CARTESIAN_POINT('',(0.,0.15,0.));
#493=CARTESIAN_POINT('',(0.,0.,0.));
#494=CARTESIAN_POINT('',(-0.150000000000001,0.15,0.3));
#495=CARTESIAN_POINT('',(-0.150000000000001,0.15,0.));
#496=CARTESIAN_POINT('',(-0.150000000000001,0.15,0.));
#497=CARTESIAN_POINT('',(-0.15,-0.15,0.));
#498=CARTESIAN_POINT('',(-0.15,-0.15,0.3));
#499=CARTESIAN_POINT('',(-0.15,-0.15,0.3));
#500=CARTESIAN_POINT('',(-0.150000000000001,0.15,0.3));
#501=CARTESIAN_POINT('',(-0.150000000000001,0.15,0.3));
#502=CARTESIAN_POINT('',(-0.150000000000001,0.15,0.3));
#503=CARTESIAN_POINT('',(-0.15,-0.15,0.3));
#504=CARTESIAN_POINT('',(-0.15,-0.15,0.));
#505=CARTESIAN_POINT('',(0.15,-0.15,0.));
#506=CARTESIAN_POINT('',(0.15,-0.15,0.3));
#507=CARTESIAN_POINT('',(0.15,-0.15,0.3));
#508=CARTESIAN_POINT('',(-0.15,-0.15,0.3));
#509=CARTESIAN_POINT('',(0.15,-0.15,0.3));
#510=CARTESIAN_POINT('',(0.15,-0.15,0.));
#511=CARTESIAN_POINT('',(0.149999999999999,0.15,0.));
#512=CARTESIAN_POINT('',(0.149999999999999,0.15,0.3));
#513=CARTESIAN_POINT('',(0.149999999999999,0.15,0.3));
#514=CARTESIAN_POINT('',(0.15,-0.15,0.3));
#515=CARTESIAN_POINT('',(0.149999999999999,0.15,0.3));
#516=CARTESIAN_POINT('',(0.149999999999999,0.15,0.));
#517=CARTESIAN_POINT('',(0.149999999999999,0.15,0.3));
#518=CARTESIAN_POINT('',(0.,0.,0.3));
#519=CARTESIAN_POINT('',(0.,0.,0.));
#520=CARTESIAN_POINT('',(0.149999996979612,-1.06913176815618E-16,-2.78744813160107E-16));
#521=MECHANICAL_DESIGN_GEOMETRIC_PRESENTATION_REPRESENTATION('',(#310,#311,
#312),#522);
#522=(
GEOMETRIC_REPRESENTATION_CONTEXT(3)
GLOBAL_UNCERTAINTY_ASSIGNED_CONTEXT((#525))
GLOBAL_UNIT_ASSIGNED_CONTEXT((#530,#529,#528))
REPRESENTATION_CONTEXT('0201.par','TOP_LEVEL_ASSEMBLY_PART')
);
#523=(
GEOMETRIC_REPRESENTATION_CONTEXT(3)
GLOBAL_UNCERTAINTY_ASSIGNED_CONTEXT((#526))
GLOBAL_UNIT_ASSIGNED_CONTEXT((#530,#529,#528))
REPRESENTATION_CONTEXT('Pins','COMPONENT_PART')
);
#524=(
GEOMETRIC_REPRESENTATION_CONTEXT(3)
GLOBAL_UNCERTAINTY_ASSIGNED_CONTEXT((#527))
GLOBAL_UNIT_ASSIGNED_CONTEXT((#530,#529,#528))
REPRESENTATION_CONTEXT('Body','COMPONENT_PART')
);
#525=UNCERTAINTY_MEASURE_WITH_UNIT(LENGTH_MEASURE(0.005),#530,
'DISTANCE_ACCURACY_VALUE','Maximum Tolerance applied to model');
#526=UNCERTAINTY_MEASURE_WITH_UNIT(LENGTH_MEASURE(0.005),#530,
'DISTANCE_ACCURACY_VALUE','Maximum Tolerance applied to model');
#527=UNCERTAINTY_MEASURE_WITH_UNIT(LENGTH_MEASURE(0.005),#530,
'DISTANCE_ACCURACY_VALUE','Maximum Tolerance applied to model');
#528=(
NAMED_UNIT(*)
SI_UNIT($,.STERADIAN.)
SOLID_ANGLE_UNIT()
);
#529=(
NAMED_UNIT(*)
PLANE_ANGLE_UNIT()
SI_UNIT($,.RADIAN.)
);
#530=(
LENGTH_UNIT()
NAMED_UNIT(*)
SI_UNIT(.MILLI.,.METRE.)
);
#531=PRODUCT_DEFINITION_SHAPE('','',#536);
#532=PRODUCT_DEFINITION_SHAPE('','',#537);
#533=PRODUCT_DEFINITION_SHAPE(' ','NAUO PRDDFN',#21);
#534=PRODUCT_DEFINITION_SHAPE('','',#538);
#535=PRODUCT_DEFINITION_SHAPE(' ','NAUO PRDDFN',#22);
#536=PRODUCT_DEFINITION('','',#542,#539);
#537=PRODUCT_DEFINITION('','',#543,#540);
#538=PRODUCT_DEFINITION('','',#544,#541);
#539=PRODUCT_DEFINITION_CONTEXT('',#558,'design');
#540=PRODUCT_DEFINITION_CONTEXT('',#558,'design');
#541=PRODUCT_DEFINITION_CONTEXT('',#558,'design');
#542=PRODUCT_DEFINITION_FORMATION_WITH_SPECIFIED_SOURCE('','',#548,
 .NOT_KNOWN.);
#543=PRODUCT_DEFINITION_FORMATION_WITH_SPECIFIED_SOURCE('','',#549,
 .NOT_KNOWN.);
#544=PRODUCT_DEFINITION_FORMATION_WITH_SPECIFIED_SOURCE('','',#550,
 .NOT_KNOWN.);
#545=PRODUCT_RELATED_PRODUCT_CATEGORY('','',(#548));
#546=PRODUCT_RELATED_PRODUCT_CATEGORY('','',(#549));
#547=PRODUCT_RELATED_PRODUCT_CATEGORY('','',(#550));
#548=PRODUCT('0201.par','0201.par','0201.par',(#554));
#549=PRODUCT('Pins','Pins','Pins',(#555));
#550=PRODUCT('Body','Body','Body',(#556));
#551=PRODUCT_CATEGORY('','');
#552=PRODUCT_CATEGORY('','');
#553=PRODUCT_CATEGORY('','');
#554=PRODUCT_CONTEXT('',#558,'mechanical');
#555=PRODUCT_CONTEXT('',#558,'mechanical');
#556=PRODUCT_CONTEXT('',#558,'mechanical');
#557=APPLICATION_PROTOCOL_DEFINITION('international standard',
'automotive_design',2010,#558);
#558=APPLICATION_CONTEXT(
'core data for automotive mechanical design processes');
ENDSEC;
END-ISO-10303-21;
