ISO-10303-21;
HEADER;
FILE_DESCRIPTION( ( 'Unknown' ), '1' );
FILE_NAME( 'I:/User_Groups_Only/17_EMC_Product_&_Development/Documentations/1_ArtikelStamm/PG_1/WE_Fe_CPU/Grafiken_Zeichnungen/CAD_Zeichnungswesen/CAD_aktuell/74274189_40x1,5x18/3d_view/74274189.stp', 'Unknown', ( 'Unknown' ), ( 'Unknown' ), 'XStep 1.0', 'Unknown', '  ' );
FILE_SCHEMA( ( 'automotive_design' ) );
ENDSEC;
DATA;
#1 = MECHANICAL_DESIGN_GEOMETRIC_PRESENTATION_REPRESENTATION( ' ', ( #18, #19, #20, #21, #22, #23 ), #14 );
#2 = PRODUCT_DEFINITION_CONTEXT( '', #24, 'design' );
#3 = APPLICATION_PROTOCOL_DEFINITION( 'INTERNATIONAL STANDARD', 'automotive_design', 1994, #24 );
#4 = PRODUCT_CATEGORY_RELATIONSHIP( 'NONE', 'NONE', #25, #26 );
#5 = SHAPE_DEFINITION_REPRESENTATION( #27, #28 );
#6 = PRODUCT_DEFINITION_CONTEXT( '', #29, 'design' );
#7 = APPLICATION_PROTOCOL_DEFINITION( 'INTERNATIONAL STANDARD', 'automotive_design', 1994, #29 );
#8 = PRODUCT_CATEGORY_RELATIONSHIP( 'NONE', 'NONE', #30, #31 );
#9 = SHAPE_DEFINITION_REPRESENTATION( #32, #33 );
#10 = PRODUCT_DEFINITION_CONTEXT( '', #34, 'design' );
#11 = APPLICATION_PROTOCOL_DEFINITION( 'INTERNATIONAL STANDARD', 'automotive_design', 1994, #34 );
#12 = PRODUCT_CATEGORY_RELATIONSHIP( 'NONE', 'NONE', #35, #36 );
#13 = SHAPE_DEFINITION_REPRESENTATION( #37, #38 );
#14 =  ( GEOMETRIC_REPRESENTATION_CONTEXT( 3 )GLOBAL_UNCERTAINTY_ASSIGNED_CONTEXT( ( #41 ) )GLOBAL_UNIT_ASSIGNED_CONTEXT( ( #43, #44, #45 ) )REPRESENTATION_CONTEXT( 'NONE', 'WORKSPACE' ) );
#18 = STYLED_ITEM( '', ( #47 ), #48 );
#19 = STYLED_ITEM( '', ( #49 ), #50 );
#20 = STYLED_ITEM( '', ( #51 ), #52 );
#21 = STYLED_ITEM( '', ( #53 ), #54 );
#22 = STYLED_ITEM( '', ( #55 ), #56 );
#23 = STYLED_ITEM( '', ( #57 ), #58 );
#24 = APPLICATION_CONTEXT( ' ' );
#25 = PRODUCT_CATEGORY( 'part', 'NONE' );
#26 = PRODUCT_RELATED_PRODUCT_CATEGORY( 'detail', ' ', ( #59 ) );
#27 = PRODUCT_DEFINITION_SHAPE( 'NONE', 'NONE', #60 );
#28 = ADVANCED_BREP_SHAPE_REPRESENTATION( 'Assem1', ( #61, #62, #63 ), #14 );
#29 = APPLICATION_CONTEXT( ' ' );
#30 = PRODUCT_CATEGORY( 'part', 'NONE' );
#31 = PRODUCT_RELATED_PRODUCT_CATEGORY( 'detail', ' ', ( #64 ) );
#32 = PRODUCT_DEFINITION_SHAPE( 'NONE', 'NONE', #65 );
#33 = ADVANCED_BREP_SHAPE_REPRESENTATION( '7427418', ( #66 ), #14 );
#34 = APPLICATION_CONTEXT( ' ' );
#35 = PRODUCT_CATEGORY( 'part', 'NONE' );
#36 = PRODUCT_RELATED_PRODUCT_CATEGORY( 'detail', ' ', ( #67 ) );
#37 = PRODUCT_DEFINITION_SHAPE( 'NONE', 'NONE', #68 );
#38 = ADVANCED_BREP_SHAPE_REPRESENTATION( 'Tape', ( #69 ), #14 );
#41 = UNCERTAINTY_MEASURE_WITH_UNIT( LENGTH_MEASURE( 0.00100000000000000 ), #43, '', '' );
#43 =  ( CONVERSION_BASED_UNIT( 'MILLIMETRE', #72 )LENGTH_UNIT(  )NAMED_UNIT( #75 ) );
#44 =  ( NAMED_UNIT( #77 )PLANE_ANGLE_UNIT(  )SI_UNIT( $, .RADIAN. ) );
#45 =  ( NAMED_UNIT( #77 )SOLID_ANGLE_UNIT(  )SI_UNIT( $, .STERADIAN. ) );
#47 = PRESENTATION_STYLE_ASSIGNMENT( ( #83 ) );
#48 = ADVANCED_FACE( '', ( #84 ), #85, .F. );
#49 = PRESENTATION_STYLE_ASSIGNMENT( ( #86 ) );
#50 = ADVANCED_FACE( '', ( #87 ), #88, .F. );
#51 = PRESENTATION_STYLE_ASSIGNMENT( ( #89 ) );
#52 = ADVANCED_FACE( '', ( #90 ), #91, .F. );
#53 = PRESENTATION_STYLE_ASSIGNMENT( ( #92 ) );
#54 = ADVANCED_FACE( '', ( #93 ), #94, .F. );
#55 = PRESENTATION_STYLE_ASSIGNMENT( ( #95 ) );
#56 = ADVANCED_FACE( '', ( #96 ), #97, .F. );
#57 = PRESENTATION_STYLE_ASSIGNMENT( ( #98 ) );
#58 = ADVANCED_FACE( '', ( #99 ), #100, .T. );
#59 = PRODUCT( 'Assem1', 'Assem1', 'PART-Assem1-DESC', ( #101 ) );
#60 = PRODUCT_DEFINITION( 'NONE', 'NONE', #102, #2 );
#61 = MAPPED_ITEM( '', #103, #104 );
#62 = MAPPED_ITEM( '', #105, #106 );
#63 = AXIS2_PLACEMENT_3D( '', #107, #108, #109 );
#64 = PRODUCT( '7427418', '7427418', 'PART-7427418-DESC', ( #110 ) );
#65 = PRODUCT_DEFINITION( 'NONE', 'NONE', #111, #6 );
#66 = MANIFOLD_SOLID_BREP( '7427418', #112 );
#67 = PRODUCT( 'Tape', 'Tape', 'PART-Tape-DESC', ( #113 ) );
#68 = PRODUCT_DEFINITION( 'NONE', 'NONE', #114, #10 );
#69 = MANIFOLD_SOLID_BREP( 'Tape', #115 );
#72 = LENGTH_MEASURE_WITH_UNIT( LENGTH_MEASURE( 1.00000000000000 ), #116 );
#75 = DIMENSIONAL_EXPONENTS( 1.00000000000000, 0.000000000000000, 0.000000000000000, 0.000000000000000, 0.000000000000000, 0.000000000000000, 0.000000000000000 );
#77 = DIMENSIONAL_EXPONENTS( 0.000000000000000, 0.000000000000000, 0.000000000000000, 0.000000000000000, 0.000000000000000, 0.000000000000000, 0.000000000000000 );
#83 = SURFACE_STYLE_USAGE( .BOTH., #117 );
#84 = FACE_OUTER_BOUND( '', #118, .T. );
#85 = PLANE( '', #119 );
#86 = SURFACE_STYLE_USAGE( .BOTH., #120 );
#87 = FACE_OUTER_BOUND( '', #121, .T. );
#88 = PLANE( '', #122 );
#89 = SURFACE_STYLE_USAGE( .BOTH., #123 );
#90 = FACE_OUTER_BOUND( '', #124, .T. );
#91 = PLANE( '', #125 );
#92 = SURFACE_STYLE_USAGE( .BOTH., #126 );
#93 = FACE_OUTER_BOUND( '', #127, .T. );
#94 = PLANE( '', #128 );
#95 = SURFACE_STYLE_USAGE( .BOTH., #129 );
#96 = FACE_OUTER_BOUND( '', #130, .T. );
#97 = PLANE( '', #131 );
#98 = SURFACE_STYLE_USAGE( .BOTH., #132 );
#99 = FACE_OUTER_BOUND( '', #133, .T. );
#100 = PLANE( '', #134 );
#101 = PRODUCT_CONTEXT( '', #24, 'mechanical' );
#102 = PRODUCT_DEFINITION_FORMATION_WITH_SPECIFIED_SOURCE( ' ', 'NONE', #59, .NOT_KNOWN. );
#103 = REPRESENTATION_MAP( #63, #33 );
#104 = AXIS2_PLACEMENT_3D( '', #135, #136, #137 );
#105 = REPRESENTATION_MAP( #63, #38 );
#106 = AXIS2_PLACEMENT_3D( '', #138, #139, #140 );
#107 = CARTESIAN_POINT( '', ( 0.000000000000000, 0.000000000000000, 0.000000000000000 ) );
#108 = DIRECTION( '', ( 0.000000000000000, 0.000000000000000, 1.00000000000000 ) );
#109 = DIRECTION( '', ( 1.00000000000000, 0.000000000000000, 0.000000000000000 ) );
#110 = PRODUCT_CONTEXT( '', #29, 'mechanical' );
#111 = PRODUCT_DEFINITION_FORMATION_WITH_SPECIFIED_SOURCE( ' ', 'NONE', #64, .NOT_KNOWN. );
#112 = CLOSED_SHELL( '', ( #54, #58, #56, #48, #50, #52 ) );
#113 = PRODUCT_CONTEXT( '', #34, 'mechanical' );
#114 = PRODUCT_DEFINITION_FORMATION_WITH_SPECIFIED_SOURCE( ' ', 'NONE', #67, .NOT_KNOWN. );
#115 = CLOSED_SHELL( '', ( #141, #142, #143, #144, #145, #146 ) );
#116 =  ( NAMED_UNIT( #75 )LENGTH_UNIT(  )SI_UNIT( .MILLI., .METRE. ) );
#117 = SURFACE_SIDE_STYLE( '', ( #148 ) );
#118 = EDGE_LOOP( '', ( #149, #150, #151, #152 ) );
#119 = AXIS2_PLACEMENT_3D( '', #153, #154, #155 );
#120 = SURFACE_SIDE_STYLE( '', ( #156 ) );
#121 = EDGE_LOOP( '', ( #157, #158, #159, #160 ) );
#122 = AXIS2_PLACEMENT_3D( '', #161, #162, #163 );
#123 = SURFACE_SIDE_STYLE( '', ( #164 ) );
#124 = EDGE_LOOP( '', ( #165, #166, #167, #168 ) );
#125 = AXIS2_PLACEMENT_3D( '', #169, #170, #171 );
#126 = SURFACE_SIDE_STYLE( '', ( #172 ) );
#127 = EDGE_LOOP( '', ( #173, #174, #175, #176 ) );
#128 = AXIS2_PLACEMENT_3D( '', #177, #178, #179 );
#129 = SURFACE_SIDE_STYLE( '', ( #180 ) );
#130 = EDGE_LOOP( '', ( #181, #182, #183, #184 ) );
#131 = AXIS2_PLACEMENT_3D( '', #185, #186, #187 );
#132 = SURFACE_SIDE_STYLE( '', ( #188 ) );
#133 = EDGE_LOOP( '', ( #189, #190, #191, #192 ) );
#134 = AXIS2_PLACEMENT_3D( '', #193, #194, #195 );
#135 = CARTESIAN_POINT( '', ( 0.000000000000000, 0.000000000000000, 0.000000000000000 ) );
#136 = DIRECTION( '', ( 0.000000000000000, 0.000000000000000, 1.00000000000000 ) );
#137 = DIRECTION( '', ( 1.00000000000000, 0.000000000000000, 0.000000000000000 ) );
#138 = CARTESIAN_POINT( '', ( -3.38618022510674E-016, -2.42861286636753E-014, -0.900000000000000 ) );
#139 = DIRECTION( '', ( 0.000000000000000, 0.000000000000000, 1.00000000000000 ) );
#140 = DIRECTION( '', ( 1.00000000000000, 0.000000000000000, 0.000000000000000 ) );
#141 = ADVANCED_FACE( '', ( #196 ), #197, .F. );
#142 = ADVANCED_FACE( '', ( #198 ), #199, .T. );
#143 = ADVANCED_FACE( '', ( #200 ), #201, .F. );
#144 = ADVANCED_FACE( '', ( #202 ), #203, .F. );
#145 = ADVANCED_FACE( '', ( #204 ), #205, .F. );
#146 = ADVANCED_FACE( '', ( #206 ), #207, .F. );
#148 = SURFACE_STYLE_FILL_AREA( #208 );
#149 = ORIENTED_EDGE( '', *, *, #209, .T. );
#150 = ORIENTED_EDGE( '', *, *, #210, .F. );
#151 = ORIENTED_EDGE( '', *, *, #211, .F. );
#152 = ORIENTED_EDGE( '', *, *, #212, .T. );
#153 = CARTESIAN_POINT( '', ( 20.0000000000000, -9.00000000000000, 1.50000000000000 ) );
#154 = DIRECTION( '', ( -1.00000000000000, 0.000000000000000, 0.000000000000000 ) );
#155 = DIRECTION( '', ( 0.000000000000000, 0.000000000000000, 1.00000000000000 ) );
#156 = SURFACE_STYLE_FILL_AREA( #213 );
#157 = ORIENTED_EDGE( '', *, *, #214, .T. );
#158 = ORIENTED_EDGE( '', *, *, #215, .F. );
#159 = ORIENTED_EDGE( '', *, *, #216, .F. );
#160 = ORIENTED_EDGE( '', *, *, #210, .T. );
#161 = CARTESIAN_POINT( '', ( 20.0000000000000, 9.00000000000000, 1.50000000000000 ) );
#162 = DIRECTION( '', ( -4.33680868994202E-017, -1.00000000000000, 0.000000000000000 ) );
#163 = DIRECTION( '', ( 1.00000000000000, -4.33680868994202E-017, 0.000000000000000 ) );
#164 = SURFACE_STYLE_FILL_AREA( #217 );
#165 = ORIENTED_EDGE( '', *, *, #218, .F. );
#166 = ORIENTED_EDGE( '', *, *, #214, .F. );
#167 = ORIENTED_EDGE( '', *, *, #209, .F. );
#168 = ORIENTED_EDGE( '', *, *, #219, .F. );
#169 = CARTESIAN_POINT( '', ( -20.0000000000000, -9.00000000000000, 0.000000000000000 ) );
#170 = DIRECTION( '', ( 0.000000000000000, 0.000000000000000, 1.00000000000000 ) );
#171 = DIRECTION( '', ( 1.00000000000000, 0.000000000000000, 0.000000000000000 ) );
#172 = SURFACE_STYLE_FILL_AREA( #220 );
#173 = ORIENTED_EDGE( '', *, *, #218, .T. );
#174 = ORIENTED_EDGE( '', *, *, #221, .F. );
#175 = ORIENTED_EDGE( '', *, *, #222, .F. );
#176 = ORIENTED_EDGE( '', *, *, #215, .T. );
#177 = CARTESIAN_POINT( '', ( -20.0000000000000, 9.00000000000000, 1.50000000000000 ) );
#178 = DIRECTION( '', ( 1.00000000000000, 0.000000000000000, 0.000000000000000 ) );
#179 = DIRECTION( '', ( 0.000000000000000, 0.000000000000000, -1.00000000000000 ) );
#180 = SURFACE_STYLE_FILL_AREA( #223 );
#181 = ORIENTED_EDGE( '', *, *, #219, .T. );
#182 = ORIENTED_EDGE( '', *, *, #212, .F. );
#183 = ORIENTED_EDGE( '', *, *, #224, .F. );
#184 = ORIENTED_EDGE( '', *, *, #221, .T. );
#185 = CARTESIAN_POINT( '', ( -20.0000000000000, -9.00000000000000, 1.50000000000000 ) );
#186 = DIRECTION( '', ( -4.33680868994202E-017, 1.00000000000000, 0.000000000000000 ) );
#187 = DIRECTION( '', ( -1.00000000000000, -4.33680868994202E-017, 0.000000000000000 ) );
#188 = SURFACE_STYLE_FILL_AREA( #225 );
#189 = ORIENTED_EDGE( '', *, *, #222, .T. );
#190 = ORIENTED_EDGE( '', *, *, #224, .T. );
#191 = ORIENTED_EDGE( '', *, *, #211, .T. );
#192 = ORIENTED_EDGE( '', *, *, #216, .T. );
#193 = CARTESIAN_POINT( '', ( -20.0000000000000, -9.00000000000000, 1.50000000000000 ) );
#194 = DIRECTION( '', ( 0.000000000000000, 0.000000000000000, 1.00000000000000 ) );
#195 = DIRECTION( '', ( 1.00000000000000, 0.000000000000000, 0.000000000000000 ) );
#196 = FACE_OUTER_BOUND( '', #226, .T. );
#197 = PLANE( '', #227 );
#198 = FACE_OUTER_BOUND( '', #228, .T. );
#199 = PLANE( '', #229 );
#200 = FACE_OUTER_BOUND( '', #230, .T. );
#201 = PLANE( '', #231 );
#202 = FACE_OUTER_BOUND( '', #232, .T. );
#203 = PLANE( '', #233 );
#204 = FACE_OUTER_BOUND( '', #234, .T. );
#205 = PLANE( '', #235 );
#206 = FACE_OUTER_BOUND( '', #236, .T. );
#207 = PLANE( '', #237 );
#208 = FILL_AREA_STYLE( '', ( #238 ) );
#209 = EDGE_CURVE( '', #239, #240, #241, .T. );
#210 = EDGE_CURVE( '', #242, #240, #243, .T. );
#211 = EDGE_CURVE( '', #244, #242, #245, .T. );
#212 = EDGE_CURVE( '', #244, #239, #246, .T. );
#213 = FILL_AREA_STYLE( '', ( #247 ) );
#214 = EDGE_CURVE( '', #240, #248, #249, .T. );
#215 = EDGE_CURVE( '', #250, #248, #251, .T. );
#216 = EDGE_CURVE( '', #242, #250, #252, .T. );
#217 = FILL_AREA_STYLE( '', ( #253 ) );
#218 = EDGE_CURVE( '', #248, #254, #255, .T. );
#219 = EDGE_CURVE( '', #254, #239, #256, .T. );
#220 = FILL_AREA_STYLE( '', ( #257 ) );
#221 = EDGE_CURVE( '', #258, #254, #259, .T. );
#222 = EDGE_CURVE( '', #250, #258, #260, .T. );
#223 = FILL_AREA_STYLE( '', ( #261 ) );
#224 = EDGE_CURVE( '', #258, #244, #262, .T. );
#225 = FILL_AREA_STYLE( '', ( #263 ) );
#226 = EDGE_LOOP( '', ( #264, #265, #266, #267 ) );
#227 = AXIS2_PLACEMENT_3D( '', #268, #269, #270 );
#228 = EDGE_LOOP( '', ( #271, #272, #273, #274 ) );
#229 = AXIS2_PLACEMENT_3D( '', #275, #276, #277 );
#230 = EDGE_LOOP( '', ( #278, #279, #280, #281 ) );
#231 = AXIS2_PLACEMENT_3D( '', #282, #283, #284 );
#232 = EDGE_LOOP( '', ( #285, #286, #287, #288 ) );
#233 = AXIS2_PLACEMENT_3D( '', #289, #290, #291 );
#234 = EDGE_LOOP( '', ( #292, #293, #294, #295 ) );
#235 = AXIS2_PLACEMENT_3D( '', #296, #297, #298 );
#236 = EDGE_LOOP( '', ( #299, #300, #301, #302 ) );
#237 = AXIS2_PLACEMENT_3D( '', #303, #304, #305 );
#238 = FILL_AREA_STYLE_COLOUR( '', #306 );
#239 = VERTEX_POINT( '', #307 );
#240 = VERTEX_POINT( '', #308 );
#241 = LINE( '', #309, #310 );
#242 = VERTEX_POINT( '', #311 );
#243 = LINE( '', #312, #313 );
#244 = VERTEX_POINT( '', #314 );
#245 = LINE( '', #315, #316 );
#246 = LINE( '', #317, #318 );
#247 = FILL_AREA_STYLE_COLOUR( '', #319 );
#248 = VERTEX_POINT( '', #320 );
#249 = LINE( '', #321, #322 );
#250 = VERTEX_POINT( '', #323 );
#251 = LINE( '', #324, #325 );
#252 = LINE( '', #326, #327 );
#253 = FILL_AREA_STYLE_COLOUR( '', #328 );
#254 = VERTEX_POINT( '', #329 );
#255 = LINE( '', #330, #331 );
#256 = LINE( '', #332, #333 );
#257 = FILL_AREA_STYLE_COLOUR( '', #334 );
#258 = VERTEX_POINT( '', #335 );
#259 = LINE( '', #336, #337 );
#260 = LINE( '', #338, #339 );
#261 = FILL_AREA_STYLE_COLOUR( '', #340 );
#262 = LINE( '', #341, #342 );
#263 = FILL_AREA_STYLE_COLOUR( '', #343 );
#264 = ORIENTED_EDGE( '', *, *, #344, .T. );
#265 = ORIENTED_EDGE( '', *, *, #345, .F. );
#266 = ORIENTED_EDGE( '', *, *, #346, .F. );
#267 = ORIENTED_EDGE( '', *, *, #347, .T. );
#268 = CARTESIAN_POINT( '', ( -19.0000000000000, 8.00000000000000, 0.900000000000000 ) );
#269 = DIRECTION( '', ( 1.00000000000000, 0.000000000000000, 0.000000000000000 ) );
#270 = DIRECTION( '', ( 0.000000000000000, 0.000000000000000, -1.00000000000000 ) );
#271 = ORIENTED_EDGE( '', *, *, #346, .T. );
#272 = ORIENTED_EDGE( '', *, *, #348, .T. );
#273 = ORIENTED_EDGE( '', *, *, #349, .T. );
#274 = ORIENTED_EDGE( '', *, *, #350, .T. );
#275 = CARTESIAN_POINT( '', ( -19.0000000000000, -8.00000000000000, 0.900000000000000 ) );
#276 = DIRECTION( '', ( 0.000000000000000, 0.000000000000000, 1.00000000000000 ) );
#277 = DIRECTION( '', ( 1.00000000000000, 0.000000000000000, 0.000000000000000 ) );
#278 = ORIENTED_EDGE( '', *, *, #351, .T. );
#279 = ORIENTED_EDGE( '', *, *, #352, .F. );
#280 = ORIENTED_EDGE( '', *, *, #348, .F. );
#281 = ORIENTED_EDGE( '', *, *, #345, .T. );
#282 = CARTESIAN_POINT( '', ( -19.0000000000000, -8.00000000000000, 0.900000000000000 ) );
#283 = DIRECTION( '', ( -4.56506177888634E-017, 1.00000000000000, 0.000000000000000 ) );
#284 = DIRECTION( '', ( -1.00000000000000, -4.56506177888634E-017, 0.000000000000000 ) );
#285 = ORIENTED_EDGE( '', *, *, #353, .T. );
#286 = ORIENTED_EDGE( '', *, *, #354, .F. );
#287 = ORIENTED_EDGE( '', *, *, #349, .F. );
#288 = ORIENTED_EDGE( '', *, *, #352, .T. );
#289 = CARTESIAN_POINT( '', ( 19.0000000000000, -8.00000000000000, 0.900000000000000 ) );
#290 = DIRECTION( '', ( -1.00000000000000, 0.000000000000000, 0.000000000000000 ) );
#291 = DIRECTION( '', ( 0.000000000000000, 0.000000000000000, 1.00000000000000 ) );
#292 = ORIENTED_EDGE( '', *, *, #355, .T. );
#293 = ORIENTED_EDGE( '', *, *, #347, .F. );
#294 = ORIENTED_EDGE( '', *, *, #350, .F. );
#295 = ORIENTED_EDGE( '', *, *, #354, .T. );
#296 = CARTESIAN_POINT( '', ( 19.0000000000000, 8.00000000000000, 0.900000000000000 ) );
#297 = DIRECTION( '', ( -4.56506177888634E-017, -1.00000000000000, 0.000000000000000 ) );
#298 = DIRECTION( '', ( 1.00000000000000, -4.56506177888634E-017, 0.000000000000000 ) );
#299 = ORIENTED_EDGE( '', *, *, #344, .F. );
#300 = ORIENTED_EDGE( '', *, *, #355, .F. );
#301 = ORIENTED_EDGE( '', *, *, #353, .F. );
#302 = ORIENTED_EDGE( '', *, *, #351, .F. );
#303 = CARTESIAN_POINT( '', ( -19.0000000000000, -8.00000000000000, 0.000000000000000 ) );
#304 = DIRECTION( '', ( 0.000000000000000, 0.000000000000000, 1.00000000000000 ) );
#305 = DIRECTION( '', ( 1.00000000000000, 0.000000000000000, 0.000000000000000 ) );
#306 = COLOUR_RGB( '', 0.200000002980232, 0.200000002980232, 0.200000002980232 );
#307 = CARTESIAN_POINT( '', ( 20.0000000000000, -9.00000000000000, 0.000000000000000 ) );
#308 = CARTESIAN_POINT( '', ( 20.0000000000000, 9.00000000000000, 0.000000000000000 ) );
#309 = CARTESIAN_POINT( '', ( 20.0000000000000, -9.00000000000000, 0.000000000000000 ) );
#310 = VECTOR( '', #356, 1000.00000000000 );
#311 = CARTESIAN_POINT( '', ( 20.0000000000000, 9.00000000000000, 1.50000000000000 ) );
#312 = CARTESIAN_POINT( '', ( 20.0000000000000, 9.00000000000000, 1.50000000000000 ) );
#313 = VECTOR( '', #357, 1000.00000000000 );
#314 = CARTESIAN_POINT( '', ( 20.0000000000000, -9.00000000000000, 1.50000000000000 ) );
#315 = CARTESIAN_POINT( '', ( 20.0000000000000, -9.00000000000000, 1.50000000000000 ) );
#316 = VECTOR( '', #358, 1000.00000000000 );
#317 = CARTESIAN_POINT( '', ( 20.0000000000000, -9.00000000000000, 1.50000000000000 ) );
#318 = VECTOR( '', #359, 1000.00000000000 );
#319 = COLOUR_RGB( '', 0.200000002980232, 0.200000002980232, 0.200000002980232 );
#320 = CARTESIAN_POINT( '', ( -20.0000000000000, 9.00000000000000, 0.000000000000000 ) );
#321 = CARTESIAN_POINT( '', ( 20.0000000000000, 9.00000000000000, 0.000000000000000 ) );
#322 = VECTOR( '', #360, 1000.00000000000 );
#323 = CARTESIAN_POINT( '', ( -20.0000000000000, 9.00000000000000, 1.50000000000000 ) );
#324 = CARTESIAN_POINT( '', ( -20.0000000000000, 9.00000000000000, 1.50000000000000 ) );
#325 = VECTOR( '', #361, 1000.00000000000 );
#326 = CARTESIAN_POINT( '', ( 20.0000000000000, 9.00000000000000, 1.50000000000000 ) );
#327 = VECTOR( '', #362, 1000.00000000000 );
#328 = COLOUR_RGB( '', 0.200000002980232, 0.200000002980232, 0.200000002980232 );
#329 = CARTESIAN_POINT( '', ( -20.0000000000000, -9.00000000000000, 0.000000000000000 ) );
#330 = CARTESIAN_POINT( '', ( -20.0000000000000, 9.00000000000000, 0.000000000000000 ) );
#331 = VECTOR( '', #363, 1000.00000000000 );
#332 = CARTESIAN_POINT( '', ( -20.0000000000000, -9.00000000000000, 0.000000000000000 ) );
#333 = VECTOR( '', #364, 1000.00000000000 );
#334 = COLOUR_RGB( '', 0.200000002980232, 0.200000002980232, 0.200000002980232 );
#335 = CARTESIAN_POINT( '', ( -20.0000000000000, -9.00000000000000, 1.50000000000000 ) );
#336 = CARTESIAN_POINT( '', ( -20.0000000000000, -9.00000000000000, 1.50000000000000 ) );
#337 = VECTOR( '', #365, 1000.00000000000 );
#338 = CARTESIAN_POINT( '', ( -20.0000000000000, 9.00000000000000, 1.50000000000000 ) );
#339 = VECTOR( '', #366, 1000.00000000000 );
#340 = COLOUR_RGB( '', 0.200000002980232, 0.200000002980232, 0.200000002980232 );
#341 = CARTESIAN_POINT( '', ( -20.0000000000000, -9.00000000000000, 1.50000000000000 ) );
#342 = VECTOR( '', #367, 1000.00000000000 );
#343 = COLOUR_RGB( '', 0.200000002980232, 0.200000002980232, 0.200000002980232 );
#344 = EDGE_CURVE( '', #368, #369, #370, .T. );
#345 = EDGE_CURVE( '', #371, #369, #372, .T. );
#346 = EDGE_CURVE( '', #373, #371, #374, .T. );
#347 = EDGE_CURVE( '', #373, #368, #375, .T. );
#348 = EDGE_CURVE( '', #371, #376, #377, .T. );
#349 = EDGE_CURVE( '', #376, #378, #379, .T. );
#350 = EDGE_CURVE( '', #378, #373, #380, .T. );
#351 = EDGE_CURVE( '', #369, #381, #382, .T. );
#352 = EDGE_CURVE( '', #376, #381, #383, .T. );
#353 = EDGE_CURVE( '', #381, #384, #385, .T. );
#354 = EDGE_CURVE( '', #378, #384, #386, .T. );
#355 = EDGE_CURVE( '', #384, #368, #387, .T. );
#356 = DIRECTION( '', ( 0.000000000000000, 1.00000000000000, 0.000000000000000 ) );
#357 = DIRECTION( '', ( 0.000000000000000, 0.000000000000000, -1.00000000000000 ) );
#358 = DIRECTION( '', ( 0.000000000000000, 1.00000000000000, 0.000000000000000 ) );
#359 = DIRECTION( '', ( 0.000000000000000, 0.000000000000000, -1.00000000000000 ) );
#360 = DIRECTION( '', ( -1.00000000000000, 4.33680868994202E-017, 0.000000000000000 ) );
#361 = DIRECTION( '', ( 0.000000000000000, 0.000000000000000, -1.00000000000000 ) );
#362 = DIRECTION( '', ( -1.00000000000000, 4.33680868994202E-017, 0.000000000000000 ) );
#363 = DIRECTION( '', ( 0.000000000000000, -1.00000000000000, 0.000000000000000 ) );
#364 = DIRECTION( '', ( 1.00000000000000, 4.33680868994202E-017, 0.000000000000000 ) );
#365 = DIRECTION( '', ( 0.000000000000000, 0.000000000000000, -1.00000000000000 ) );
#366 = DIRECTION( '', ( 0.000000000000000, -1.00000000000000, 0.000000000000000 ) );
#367 = DIRECTION( '', ( 1.00000000000000, 4.33680868994202E-017, 0.000000000000000 ) );
#368 = VERTEX_POINT( '', #388 );
#369 = VERTEX_POINT( '', #389 );
#370 = LINE( '', #390, #391 );
#371 = VERTEX_POINT( '', #392 );
#372 = LINE( '', #393, #394 );
#373 = VERTEX_POINT( '', #395 );
#374 = LINE( '', #396, #397 );
#375 = LINE( '', #398, #399 );
#376 = VERTEX_POINT( '', #400 );
#377 = LINE( '', #401, #402 );
#378 = VERTEX_POINT( '', #403 );
#379 = LINE( '', #404, #405 );
#380 = LINE( '', #406, #407 );
#381 = VERTEX_POINT( '', #408 );
#382 = LINE( '', #409, #410 );
#383 = LINE( '', #411, #412 );
#384 = VERTEX_POINT( '', #413 );
#385 = LINE( '', #414, #415 );
#386 = LINE( '', #416, #417 );
#387 = LINE( '', #418, #419 );
#388 = CARTESIAN_POINT( '', ( -19.0000000000000, 8.00000000000000, 0.000000000000000 ) );
#389 = CARTESIAN_POINT( '', ( -19.0000000000000, -8.00000000000000, 0.000000000000000 ) );
#390 = CARTESIAN_POINT( '', ( -19.0000000000000, 8.00000000000000, 0.000000000000000 ) );
#391 = VECTOR( '', #420, 1000.00000000000 );
#392 = CARTESIAN_POINT( '', ( -19.0000000000000, -8.00000000000000, 0.900000000000000 ) );
#393 = CARTESIAN_POINT( '', ( -19.0000000000000, -8.00000000000000, 0.900000000000000 ) );
#394 = VECTOR( '', #421, 1000.00000000000 );
#395 = CARTESIAN_POINT( '', ( -19.0000000000000, 8.00000000000000, 0.900000000000000 ) );
#396 = CARTESIAN_POINT( '', ( -19.0000000000000, 8.00000000000000, 0.900000000000000 ) );
#397 = VECTOR( '', #422, 1000.00000000000 );
#398 = CARTESIAN_POINT( '', ( -19.0000000000000, 8.00000000000000, 0.900000000000000 ) );
#399 = VECTOR( '', #423, 1000.00000000000 );
#400 = CARTESIAN_POINT( '', ( 19.0000000000000, -8.00000000000000, 0.900000000000000 ) );
#401 = CARTESIAN_POINT( '', ( -19.0000000000000, -8.00000000000000, 0.900000000000000 ) );
#402 = VECTOR( '', #424, 1000.00000000000 );
#403 = CARTESIAN_POINT( '', ( 19.0000000000000, 8.00000000000000, 0.900000000000000 ) );
#404 = CARTESIAN_POINT( '', ( 19.0000000000000, -8.00000000000000, 0.900000000000000 ) );
#405 = VECTOR( '', #425, 1000.00000000000 );
#406 = CARTESIAN_POINT( '', ( 19.0000000000000, 8.00000000000000, 0.900000000000000 ) );
#407 = VECTOR( '', #426, 1000.00000000000 );
#408 = CARTESIAN_POINT( '', ( 19.0000000000000, -8.00000000000000, 0.000000000000000 ) );
#409 = CARTESIAN_POINT( '', ( -19.0000000000000, -8.00000000000000, 0.000000000000000 ) );
#410 = VECTOR( '', #427, 1000.00000000000 );
#411 = CARTESIAN_POINT( '', ( 19.0000000000000, -8.00000000000000, 0.900000000000000 ) );
#412 = VECTOR( '', #428, 1000.00000000000 );
#413 = CARTESIAN_POINT( '', ( 19.0000000000000, 8.00000000000000, 0.000000000000000 ) );
#414 = CARTESIAN_POINT( '', ( 19.0000000000000, -8.00000000000000, 0.000000000000000 ) );
#415 = VECTOR( '', #429, 1000.00000000000 );
#416 = CARTESIAN_POINT( '', ( 19.0000000000000, 8.00000000000000, 0.900000000000000 ) );
#417 = VECTOR( '', #430, 1000.00000000000 );
#418 = CARTESIAN_POINT( '', ( 19.0000000000000, 8.00000000000000, 0.000000000000000 ) );
#419 = VECTOR( '', #431, 1000.00000000000 );
#420 = DIRECTION( '', ( 0.000000000000000, -1.00000000000000, 0.000000000000000 ) );
#421 = DIRECTION( '', ( 0.000000000000000, 0.000000000000000, -1.00000000000000 ) );
#422 = DIRECTION( '', ( 0.000000000000000, -1.00000000000000, 0.000000000000000 ) );
#423 = DIRECTION( '', ( 0.000000000000000, 0.000000000000000, -1.00000000000000 ) );
#424 = DIRECTION( '', ( 1.00000000000000, 4.56506177888634E-017, 0.000000000000000 ) );
#425 = DIRECTION( '', ( 0.000000000000000, 1.00000000000000, 0.000000000000000 ) );
#426 = DIRECTION( '', ( -1.00000000000000, 4.56506177888634E-017, 0.000000000000000 ) );
#427 = DIRECTION( '', ( 1.00000000000000, 4.56506177888634E-017, 0.000000000000000 ) );
#428 = DIRECTION( '', ( 0.000000000000000, 0.000000000000000, -1.00000000000000 ) );
#429 = DIRECTION( '', ( 0.000000000000000, 1.00000000000000, 0.000000000000000 ) );
#430 = DIRECTION( '', ( 0.000000000000000, 0.000000000000000, -1.00000000000000 ) );
#431 = DIRECTION( '', ( -1.00000000000000, 4.56506177888634E-017, 0.000000000000000 ) );
ENDSEC;
END-ISO-10303-21;
