ISO-10303-21;
HEADER;
/* Generated by software containing ST-Developer
 * from STEP Tools, Inc. (www.steptools.com) 
 */
/* OPTION: strings as raw bytes, not using required /X/ escapes */

FILE_DESCRIPTION(
/* description */ ('Unknown'),
/* implementation_level */ '2;1');

FILE_NAME(
/* name */ '726300001',
/* time_stamp */ '2019-05-06T09:39:04+02:00',
/* author */ ('Unknown'),
/* organization */ ('Unknown'),
/* preprocessor_version */ 'ST-DEVELOPER v16.7',
/* originating_system */ 'DEX',
/* authorisation */ $);

FILE_SCHEMA (('AUTOMOTIVE_DESIGN {1 0 10303 214 3 1 1}'));
ENDSEC;

DATA;
#10=PROPERTY_DEFINITION_REPRESENTATION(#14,#12);
#11=PROPERTY_DEFINITION_REPRESENTATION(#15,#13);
#12=REPRESENTATION('',(#16),#183);
#13=REPRESENTATION('',(#17),#183);
#14=PROPERTY_DEFINITION('pmi validation property','',#188);
#15=PROPERTY_DEFINITION('pmi validation property','',#188);
#16=VALUE_REPRESENTATION_ITEM('number of annotations',COUNT_MEASURE(0.));
#17=VALUE_REPRESENTATION_ITEM('number of views',COUNT_MEASURE(0.));
#18=SHAPE_REPRESENTATION_RELATIONSHIP('','',#110,#19);
#19=ADVANCED_BREP_SHAPE_REPRESENTATION('',(#108),#183);
#20=TOROIDAL_SURFACE('',#120,3.5,0.5);
#21=TOROIDAL_SURFACE('',#121,3.5,0.5);
#22=TOROIDAL_SURFACE('',#126,2.5,0.5);
#23=PLANE('',#115);
#24=PLANE('',#118);
#25=PLANE('',#124);
#26=ORIENTED_EDGE('',*,*,#40,.T.);
#27=ORIENTED_EDGE('',*,*,#41,.T.);
#28=ORIENTED_EDGE('',*,*,#42,.T.);
#29=ORIENTED_EDGE('',*,*,#43,.T.);
#30=ORIENTED_EDGE('',*,*,#44,.T.);
#31=ORIENTED_EDGE('',*,*,#43,.F.);
#32=ORIENTED_EDGE('',*,*,#41,.F.);
#33=ORIENTED_EDGE('',*,*,#40,.F.);
#34=ORIENTED_EDGE('',*,*,#44,.F.);
#35=ORIENTED_EDGE('',*,*,#45,.T.);
#36=ORIENTED_EDGE('',*,*,#42,.F.);
#37=ORIENTED_EDGE('',*,*,#46,.T.);
#38=ORIENTED_EDGE('',*,*,#46,.F.);
#39=ORIENTED_EDGE('',*,*,#45,.F.);
#40=EDGE_CURVE('',#47,#47,#54,.F.);
#41=EDGE_CURVE('',#48,#48,#55,.T.);
#42=EDGE_CURVE('',#49,#49,#56,.T.);
#43=EDGE_CURVE('',#50,#50,#57,.F.);
#44=EDGE_CURVE('',#51,#51,#58,.T.);
#45=EDGE_CURVE('',#52,#52,#59,.T.);
#46=EDGE_CURVE('',#53,#53,#60,.F.);
#47=VERTEX_POINT('',#162);
#48=VERTEX_POINT('',#164);
#49=VERTEX_POINT('',#167);
#50=VERTEX_POINT('',#169);
#51=VERTEX_POINT('',#172);
#52=VERTEX_POINT('',#177);
#53=VERTEX_POINT('',#180);
#54=CIRCLE('',#113,4.);
#55=CIRCLE('',#114,4.);
#56=CIRCLE('',#116,3.);
#57=CIRCLE('',#117,3.5);
#58=CIRCLE('',#119,3.5);
#59=CIRCLE('',#123,3.);
#60=CIRCLE('',#125,2.5);
#61=EDGE_LOOP('',(#26));
#62=EDGE_LOOP('',(#27));
#63=EDGE_LOOP('',(#28));
#64=EDGE_LOOP('',(#29));
#65=EDGE_LOOP('',(#30));
#66=EDGE_LOOP('',(#31));
#67=EDGE_LOOP('',(#32));
#68=EDGE_LOOP('',(#33));
#69=EDGE_LOOP('',(#34));
#70=EDGE_LOOP('',(#35));
#71=EDGE_LOOP('',(#36));
#72=EDGE_LOOP('',(#37));
#73=EDGE_LOOP('',(#38));
#74=EDGE_LOOP('',(#39));
#75=FACE_BOUND('',#61,.T.);
#76=FACE_BOUND('',#62,.T.);
#77=FACE_BOUND('',#63,.T.);
#78=FACE_BOUND('',#64,.T.);
#79=FACE_BOUND('',#65,.T.);
#80=FACE_BOUND('',#66,.T.);
#81=FACE_BOUND('',#67,.T.);
#82=FACE_BOUND('',#68,.T.);
#83=FACE_BOUND('',#69,.T.);
#84=FACE_BOUND('',#70,.T.);
#85=FACE_BOUND('',#71,.T.);
#86=FACE_BOUND('',#72,.T.);
#87=FACE_BOUND('',#73,.T.);
#88=FACE_BOUND('',#74,.T.);
#89=CYLINDRICAL_SURFACE('',#112,4.);
#90=CYLINDRICAL_SURFACE('',#122,3.);
#91=ADVANCED_FACE('',(#75,#76),#89,.T.);
#92=ADVANCED_FACE('',(#77,#78),#23,.F.);
#93=ADVANCED_FACE('',(#79),#24,.T.);
#94=ADVANCED_FACE('',(#80,#81),#20,.T.);
#95=ADVANCED_FACE('',(#82,#83),#21,.T.);
#96=ADVANCED_FACE('',(#84,#85),#90,.F.);
#97=ADVANCED_FACE('',(#86),#25,.F.);
#98=ADVANCED_FACE('',(#87,#88),#22,.F.);
#99=CLOSED_SHELL('',(#91,#92,#93,#94,#95,#96,#97,#98));
#100=STYLED_ITEM('',(#101),#108);
#101=PRESENTATION_STYLE_ASSIGNMENT((#102));
#102=SURFACE_STYLE_USAGE(.BOTH.,#103);
#103=SURFACE_SIDE_STYLE('',(#104));
#104=SURFACE_STYLE_FILL_AREA(#105);
#105=FILL_AREA_STYLE('',(#106));
#106=FILL_AREA_STYLE_COLOUR('',#107);
#107=COLOUR_RGB('',0.645180702209473,0.678915679454803,0.699999988079071);
#108=MANIFOLD_SOLID_BREP('',#99);
#109=SHAPE_DEFINITION_REPRESENTATION(#188,#110);
#110=SHAPE_REPRESENTATION('726300001',(#111),#183);
#111=AXIS2_PLACEMENT_3D('',#159,#127,#128);
#112=AXIS2_PLACEMENT_3D('',#160,#129,#130);
#113=AXIS2_PLACEMENT_3D('',#161,#131,#132);
#114=AXIS2_PLACEMENT_3D('',#163,#133,#134);
#115=AXIS2_PLACEMENT_3D('',#165,#135,#136);
#116=AXIS2_PLACEMENT_3D('',#166,#137,#138);
#117=AXIS2_PLACEMENT_3D('',#168,#139,#140);
#118=AXIS2_PLACEMENT_3D('',#170,#141,#142);
#119=AXIS2_PLACEMENT_3D('',#171,#143,#144);
#120=AXIS2_PLACEMENT_3D('',#173,#145,#146);
#121=AXIS2_PLACEMENT_3D('',#174,#147,#148);
#122=AXIS2_PLACEMENT_3D('',#175,#149,#150);
#123=AXIS2_PLACEMENT_3D('',#176,#151,#152);
#124=AXIS2_PLACEMENT_3D('',#178,#153,#154);
#125=AXIS2_PLACEMENT_3D('',#179,#155,#156);
#126=AXIS2_PLACEMENT_3D('',#181,#157,#158);
#127=DIRECTION('',(0.,0.,1.));
#128=DIRECTION('',(1.,0.,0.));
#129=DIRECTION('',(0.,0.,-1.));
#130=DIRECTION('',(-1.,0.,0.));
#131=DIRECTION('',(0.,0.,-1.));
#132=DIRECTION('',(-1.,0.,0.));
#133=DIRECTION('',(0.,0.,-1.));
#134=DIRECTION('',(-1.,0.,0.));
#135=DIRECTION('',(0.,0.,-1.));
#136=DIRECTION('',(-1.,0.,0.));
#137=DIRECTION('',(0.,0.,-1.));
#138=DIRECTION('',(1.,0.,0.));
#139=DIRECTION('',(0.,0.,-1.));
#140=DIRECTION('',(-1.,0.,0.));
#141=DIRECTION('',(0.,0.,-1.));
#142=DIRECTION('',(-1.,0.,0.));
#143=DIRECTION('',(0.,0.,-1.));
#144=DIRECTION('',(-1.,0.,0.));
#145=DIRECTION('',(0.,0.,-1.));
#146=DIRECTION('',(-1.,0.,0.));
#147=DIRECTION('',(0.,0.,-1.));
#148=DIRECTION('',(-1.,0.,0.));
#149=DIRECTION('',(0.,0.,1.));
#150=DIRECTION('',(1.,0.,0.));
#151=DIRECTION('',(0.,0.,-1.));
#152=DIRECTION('',(-1.,0.,0.));
#153=DIRECTION('',(0.,0.,-1.));
#154=DIRECTION('',(-1.,0.,0.));
#155=DIRECTION('',(0.,0.,-1.));
#156=DIRECTION('',(-1.,0.,0.));
#157=DIRECTION('',(0.,0.,-1.));
#158=DIRECTION('',(-1.,0.,0.));
#159=CARTESIAN_POINT('',(0.,0.,0.));
#160=CARTESIAN_POINT('',(0.,0.,9.));
#161=CARTESIAN_POINT('',(0.,0.,0.5));
#162=CARTESIAN_POINT('',(-4.,0.,0.5));
#163=CARTESIAN_POINT('',(0.,0.,8.5));
#164=CARTESIAN_POINT('',(-4.,0.,8.5));
#165=CARTESIAN_POINT('',(0.,0.,9.));
#166=CARTESIAN_POINT('',(0.,0.,9.));
#167=CARTESIAN_POINT('',(3.,0.,9.));
#168=CARTESIAN_POINT('',(0.,0.,9.));
#169=CARTESIAN_POINT('',(-3.5,0.,9.));
#170=CARTESIAN_POINT('',(0.,0.,0.));
#171=CARTESIAN_POINT('',(0.,0.,0.));
#172=CARTESIAN_POINT('',(-3.5,0.,0.));
#173=CARTESIAN_POINT('',(0.,0.,8.5));
#174=CARTESIAN_POINT('',(0.,0.,0.5));
#175=CARTESIAN_POINT('',(0.,0.,1.));
#176=CARTESIAN_POINT('',(0.,0.,1.5));
#177=CARTESIAN_POINT('',(-3.,0.,1.5));
#178=CARTESIAN_POINT('',(0.,0.,1.));
#179=CARTESIAN_POINT('',(0.,0.,1.));
#180=CARTESIAN_POINT('',(-2.5,0.,1.));
#181=CARTESIAN_POINT('',(0.,0.,1.5));
#182=MECHANICAL_DESIGN_GEOMETRIC_PRESENTATION_REPRESENTATION('',(#100),
#183);
#183=(
GEOMETRIC_REPRESENTATION_CONTEXT(3)
GLOBAL_UNCERTAINTY_ASSIGNED_CONTEXT((#184))
GLOBAL_UNIT_ASSIGNED_CONTEXT((#187,#186,#185))
REPRESENTATION_CONTEXT('726300001','TOP_LEVEL_ASSEMBLY_PART')
);
#184=UNCERTAINTY_MEASURE_WITH_UNIT(LENGTH_MEASURE(0.005),#187,
'DISTANCE_ACCURACY_VALUE','Maximum Tolerance applied to model');
#185=(
NAMED_UNIT(*)
SI_UNIT($,.STERADIAN.)
SOLID_ANGLE_UNIT()
);
#186=(
NAMED_UNIT(*)
PLANE_ANGLE_UNIT()
SI_UNIT($,.RADIAN.)
);
#187=(
LENGTH_UNIT()
NAMED_UNIT(*)
SI_UNIT(.MILLI.,.METRE.)
);
#188=PRODUCT_DEFINITION_SHAPE('','',#189);
#189=PRODUCT_DEFINITION('','',#191,#190);
#190=PRODUCT_DEFINITION_CONTEXT('',#197,'design');
#191=PRODUCT_DEFINITION_FORMATION_WITH_SPECIFIED_SOURCE('','',#193,
 .NOT_KNOWN.);
#192=PRODUCT_RELATED_PRODUCT_CATEGORY('','',(#193));
#193=PRODUCT('726300001','726300001','726300001',(#195));
#194=PRODUCT_CATEGORY('','');
#195=PRODUCT_CONTEXT('',#197,'mechanical');
#196=APPLICATION_PROTOCOL_DEFINITION('international standard',
'automotive_design',2010,#197);
#197=APPLICATION_CONTEXT(
'core data for automotive mechanical design processes');
ENDSEC;
END-ISO-10303-21;
