ISO-10303-21;
HEADER;
/* Generated by software containing ST-Developer
 * from STEP Tools, Inc. (www.steptools.com) 
 */
/* OPTION: strings as raw bytes, not using required /X/ escapes */

FILE_DESCRIPTION(
/* description */ ('Unknown'),
/* implementation_level */ '2;1');

FILE_NAME(
/* name */ '520009000',
/* time_stamp */ '2019-01-07T17:05:02+01:00',
/* author */ ('Unknown'),
/* organization */ ('Unknown'),
/* preprocessor_version */ 'ST-DEVELOPER v16.7',
/* originating_system */ 'DEX',
/* authorisation */ $);

FILE_SCHEMA (('AUTOMOTIVE_DESIGN {1 0 10303 214 3 1 1}'));
ENDSEC;

DATA;
#10=PROPERTY_DEFINITION_REPRESENTATION(#14,#12);
#11=PROPERTY_DEFINITION_REPRESENTATION(#15,#13);
#12=REPRESENTATION('',(#16),#341);
#13=REPRESENTATION('',(#17),#341);
#14=PROPERTY_DEFINITION('pmi validation property','',#346);
#15=PROPERTY_DEFINITION('pmi validation property','',#346);
#16=VALUE_REPRESENTATION_ITEM('number of annotations',COUNT_MEASURE(0.));
#17=VALUE_REPRESENTATION_ITEM('number of views',COUNT_MEASURE(0.));
#18=SHAPE_REPRESENTATION_RELATIONSHIP('','',#187,#19);
#19=ADVANCED_BREP_SHAPE_REPRESENTATION('',(#185),#341);
#20=PLANE('',#207);
#21=PLANE('',#212);
#22=LINE('',#296,#26);
#23=LINE('',#302,#27);
#24=LINE('',#306,#28);
#25=LINE('',#314,#29);
#26=VECTOR('',#229,1000.);
#27=VECTOR('',#236,1000.);
#28=VECTOR('',#241,1000.);
#29=VECTOR('',#250,1000.);
#30=CYLINDRICAL_SURFACE('',#192,4.90347935283453);
#31=CYLINDRICAL_SURFACE('',#195,7.05347935283453);
#32=CYLINDRICAL_SURFACE('',#198,15.05);
#33=CYLINDRICAL_SURFACE('',#201,12.9);
#34=CYLINDRICAL_SURFACE('',#204,4.90347935283453);
#35=CYLINDRICAL_SURFACE('',#210,7.05347935283453);
#36=CIRCLE('',#190,2.45731560854523);
#37=CIRCLE('',#191,2.45731560854523);
#38=CIRCLE('',#193,4.90347935283453);
#39=CIRCLE('',#194,4.90347935283453);
#40=CIRCLE('',#196,7.05347935283453);
#41=CIRCLE('',#197,7.05347935283453);
#42=CIRCLE('',#199,15.05);
#43=CIRCLE('',#200,15.05);
#44=CIRCLE('',#202,12.9);
#45=CIRCLE('',#203,12.9);
#46=CIRCLE('',#205,4.90347935283453);
#47=CIRCLE('',#206,4.90347935283453);
#48=CIRCLE('',#208,7.05347935283453);
#49=CIRCLE('',#209,2.45731560854523);
#50=CIRCLE('',#211,7.05347935283453);
#51=CIRCLE('',#213,2.45731560854523);
#52=ORIENTED_EDGE('',*,*,#100,.F.);
#53=ORIENTED_EDGE('',*,*,#101,.F.);
#54=ORIENTED_EDGE('',*,*,#102,.F.);
#55=ORIENTED_EDGE('',*,*,#103,.F.);
#56=ORIENTED_EDGE('',*,*,#104,.T.);
#57=ORIENTED_EDGE('',*,*,#102,.T.);
#58=ORIENTED_EDGE('',*,*,#105,.F.);
#59=ORIENTED_EDGE('',*,*,#106,.T.);
#60=ORIENTED_EDGE('',*,*,#107,.T.);
#61=ORIENTED_EDGE('',*,*,#100,.T.);
#62=ORIENTED_EDGE('',*,*,#108,.F.);
#63=ORIENTED_EDGE('',*,*,#109,.T.);
#64=ORIENTED_EDGE('',*,*,#106,.F.);
#65=ORIENTED_EDGE('',*,*,#110,.F.);
#66=ORIENTED_EDGE('',*,*,#111,.T.);
#67=ORIENTED_EDGE('',*,*,#112,.T.);
#68=ORIENTED_EDGE('',*,*,#113,.T.);
#69=ORIENTED_EDGE('',*,*,#109,.F.);
#70=ORIENTED_EDGE('',*,*,#114,.F.);
#71=ORIENTED_EDGE('',*,*,#115,.T.);
#72=ORIENTED_EDGE('',*,*,#116,.F.);
#73=ORIENTED_EDGE('',*,*,#117,.T.);
#74=ORIENTED_EDGE('',*,*,#118,.T.);
#75=ORIENTED_EDGE('',*,*,#111,.F.);
#76=ORIENTED_EDGE('',*,*,#119,.F.);
#77=ORIENTED_EDGE('',*,*,#120,.T.);
#78=ORIENTED_EDGE('',*,*,#116,.T.);
#79=ORIENTED_EDGE('',*,*,#110,.T.);
#80=ORIENTED_EDGE('',*,*,#105,.T.);
#81=ORIENTED_EDGE('',*,*,#101,.T.);
#82=ORIENTED_EDGE('',*,*,#107,.F.);
#83=ORIENTED_EDGE('',*,*,#113,.F.);
#84=ORIENTED_EDGE('',*,*,#121,.F.);
#85=ORIENTED_EDGE('',*,*,#122,.T.);
#86=ORIENTED_EDGE('',*,*,#119,.T.);
#87=ORIENTED_EDGE('',*,*,#115,.F.);
#88=ORIENTED_EDGE('',*,*,#118,.F.);
#89=ORIENTED_EDGE('',*,*,#123,.T.);
#90=ORIENTED_EDGE('',*,*,#121,.T.);
#91=ORIENTED_EDGE('',*,*,#114,.T.);
#92=ORIENTED_EDGE('',*,*,#108,.T.);
#93=ORIENTED_EDGE('',*,*,#103,.T.);
#94=ORIENTED_EDGE('',*,*,#104,.F.);
#95=ORIENTED_EDGE('',*,*,#112,.F.);
#96=ORIENTED_EDGE('',*,*,#123,.F.);
#97=ORIENTED_EDGE('',*,*,#117,.F.);
#98=ORIENTED_EDGE('',*,*,#120,.F.);
#99=ORIENTED_EDGE('',*,*,#122,.F.);
#100=EDGE_CURVE('',#124,#125,#140,.T.);
#101=EDGE_CURVE('',#126,#124,#36,.F.);
#102=EDGE_CURVE('',#127,#126,#141,.T.);
#103=EDGE_CURVE('',#125,#127,#37,.F.);
#104=EDGE_CURVE('',#128,#127,#38,.T.);
#105=EDGE_CURVE('',#129,#126,#39,.T.);
#106=EDGE_CURVE('',#129,#128,#22,.F.);
#107=EDGE_CURVE('',#130,#124,#40,.T.);
#108=EDGE_CURVE('',#131,#125,#41,.T.);
#109=EDGE_CURVE('',#131,#130,#23,.F.);
#110=EDGE_CURVE('',#132,#129,#42,.T.);
#111=EDGE_CURVE('',#132,#133,#24,.F.);
#112=EDGE_CURVE('',#133,#128,#43,.T.);
#113=EDGE_CURVE('',#134,#130,#44,.T.);
#114=EDGE_CURVE('',#135,#131,#45,.T.);
#115=EDGE_CURVE('',#135,#134,#25,.F.);
#116=EDGE_CURVE('',#136,#132,#46,.T.);
#117=EDGE_CURVE('',#136,#137,#142,.T.);
#118=EDGE_CURVE('',#137,#133,#47,.T.);
#119=EDGE_CURVE('',#138,#134,#48,.T.);
#120=EDGE_CURVE('',#138,#136,#49,.F.);
#121=EDGE_CURVE('',#139,#135,#50,.T.);
#122=EDGE_CURVE('',#139,#138,#143,.T.);
#123=EDGE_CURVE('',#137,#139,#51,.F.);
#124=VERTEX_POINT('',#280);
#125=VERTEX_POINT('',#281);
#126=VERTEX_POINT('',#283);
#127=VERTEX_POINT('',#289);
#128=VERTEX_POINT('',#293);
#129=VERTEX_POINT('',#295);
#130=VERTEX_POINT('',#299);
#131=VERTEX_POINT('',#301);
#132=VERTEX_POINT('',#305);
#133=VERTEX_POINT('',#307);
#134=VERTEX_POINT('',#311);
#135=VERTEX_POINT('',#313);
#136=VERTEX_POINT('',#317);
#137=VERTEX_POINT('',#323);
#138=VERTEX_POINT('',#327);
#139=VERTEX_POINT('',#331);
#140=B_SPLINE_CURVE_WITH_KNOTS('',3,(#275,#276,#277,#278,#279),
 .UNSPECIFIED.,.F.,.F.,(4,1,4),(4.54199639733982E-7,0.0017530427822297,
0.00350563136481966),.UNSPECIFIED.);
#141=B_SPLINE_CURVE_WITH_KNOTS('',3,(#284,#285,#286,#287,#288),
 .UNSPECIFIED.,.F.,.F.,(4,1,4),(3.53595117591516E-7,0.00161694641347815,
0.0032335392318387),.UNSPECIFIED.);
#142=B_SPLINE_CURVE_WITH_KNOTS('',3,(#318,#319,#320,#321,#322),
 .UNSPECIFIED.,.F.,.F.,(4,1,4),(3.53595117586304E-7,0.00161694641347814,
0.0032335392318387),.UNSPECIFIED.);
#143=B_SPLINE_CURVE_WITH_KNOTS('',3,(#332,#333,#334,#335,#336),
 .UNSPECIFIED.,.F.,.F.,(4,1,4),(4.54199639713863E-7,0.00175304278222968,
0.00350563136481964),.UNSPECIFIED.);
#144=EDGE_LOOP('',(#52,#53,#54,#55));
#145=EDGE_LOOP('',(#56,#57,#58,#59));
#146=EDGE_LOOP('',(#60,#61,#62,#63));
#147=EDGE_LOOP('',(#64,#65,#66,#67));
#148=EDGE_LOOP('',(#68,#69,#70,#71));
#149=EDGE_LOOP('',(#72,#73,#74,#75));
#150=EDGE_LOOP('',(#76,#77,#78,#79,#80,#81,#82,#83));
#151=EDGE_LOOP('',(#84,#85,#86,#87));
#152=EDGE_LOOP('',(#88,#89,#90,#91,#92,#93,#94,#95));
#153=EDGE_LOOP('',(#96,#97,#98,#99));
#154=FACE_BOUND('',#144,.T.);
#155=FACE_BOUND('',#145,.T.);
#156=FACE_BOUND('',#146,.T.);
#157=FACE_BOUND('',#147,.T.);
#158=FACE_BOUND('',#148,.T.);
#159=FACE_BOUND('',#149,.T.);
#160=FACE_BOUND('',#150,.T.);
#161=FACE_BOUND('',#151,.T.);
#162=FACE_BOUND('',#152,.T.);
#163=FACE_BOUND('',#153,.T.);
#164=SPHERICAL_SURFACE('',#189,2.9);
#165=SPHERICAL_SURFACE('',#214,2.9);
#166=ADVANCED_FACE('',(#154),#164,.T.);
#167=ADVANCED_FACE('',(#155),#30,.F.);
#168=ADVANCED_FACE('',(#156),#31,.T.);
#169=ADVANCED_FACE('',(#157),#32,.T.);
#170=ADVANCED_FACE('',(#158),#33,.F.);
#171=ADVANCED_FACE('',(#159),#34,.F.);
#172=ADVANCED_FACE('',(#160),#20,.T.);
#173=ADVANCED_FACE('',(#161),#35,.T.);
#174=ADVANCED_FACE('',(#162),#21,.T.);
#175=ADVANCED_FACE('',(#163),#165,.T.);
#176=CLOSED_SHELL('',(#166,#167,#168,#169,#170,#171,#172,#173,#174,#175));
#177=STYLED_ITEM('',(#178),#185);
#178=PRESENTATION_STYLE_ASSIGNMENT((#179));
#179=SURFACE_STYLE_USAGE(.BOTH.,#180);
#180=SURFACE_SIDE_STYLE('',(#181));
#181=SURFACE_STYLE_FILL_AREA(#182);
#182=FILL_AREA_STYLE('',(#183));
#183=FILL_AREA_STYLE_COLOUR('',#184);
#184=COLOUR_RGB('',0.645180702209473,0.678915679454803,0.699999988079071);
#185=MANIFOLD_SOLID_BREP('',#176);
#186=SHAPE_DEFINITION_REPRESENTATION(#346,#187);
#187=SHAPE_REPRESENTATION('520009000',(#188),#341);
#188=AXIS2_PLACEMENT_3D('',#273,#215,#216);
#189=AXIS2_PLACEMENT_3D('',#274,#217,#218);
#190=AXIS2_PLACEMENT_3D('',#282,#219,#220);
#191=AXIS2_PLACEMENT_3D('',#290,#221,#222);
#192=AXIS2_PLACEMENT_3D('',#291,#223,#224);
#193=AXIS2_PLACEMENT_3D('',#292,#225,#226);
#194=AXIS2_PLACEMENT_3D('',#294,#227,#228);
#195=AXIS2_PLACEMENT_3D('',#297,#230,#231);
#196=AXIS2_PLACEMENT_3D('',#298,#232,#233);
#197=AXIS2_PLACEMENT_3D('',#300,#234,#235);
#198=AXIS2_PLACEMENT_3D('',#303,#237,#238);
#199=AXIS2_PLACEMENT_3D('',#304,#239,#240);
#200=AXIS2_PLACEMENT_3D('',#308,#242,#243);
#201=AXIS2_PLACEMENT_3D('',#309,#244,#245);
#202=AXIS2_PLACEMENT_3D('',#310,#246,#247);
#203=AXIS2_PLACEMENT_3D('',#312,#248,#249);
#204=AXIS2_PLACEMENT_3D('',#315,#251,#252);
#205=AXIS2_PLACEMENT_3D('',#316,#253,#254);
#206=AXIS2_PLACEMENT_3D('',#324,#255,#256);
#207=AXIS2_PLACEMENT_3D('',#325,#257,#258);
#208=AXIS2_PLACEMENT_3D('',#326,#259,#260);
#209=AXIS2_PLACEMENT_3D('',#328,#261,#262);
#210=AXIS2_PLACEMENT_3D('',#329,#263,#264);
#211=AXIS2_PLACEMENT_3D('',#330,#265,#266);
#212=AXIS2_PLACEMENT_3D('',#337,#267,#268);
#213=AXIS2_PLACEMENT_3D('',#338,#269,#270);
#214=AXIS2_PLACEMENT_3D('',#339,#271,#272);
#215=DIRECTION('',(0.,0.,1.));
#216=DIRECTION('',(1.,0.,0.));
#217=DIRECTION('',(0.,1.,0.));
#218=DIRECTION('',(-1.,0.,0.));
#219=DIRECTION('',(0.,-1.,0.));
#220=DIRECTION('',(0.,0.,-1.));
#221=DIRECTION('',(0.,1.,0.));
#222=DIRECTION('',(0.,0.,1.));
#223=DIRECTION('',(0.,1.,0.));
#224=DIRECTION('',(0.,0.,1.));
#225=DIRECTION('',(0.,1.,0.));
#226=DIRECTION('',(-0.391586343594083,0.,-0.920141367133669));
#227=DIRECTION('',(0.,1.,0.));
#228=DIRECTION('',(-0.391586343594083,0.,-0.920141367133669));
#229=DIRECTION('',(5.6340548230335E-17,-1.,-2.39769562217694E-17));
#230=DIRECTION('',(0.,1.,0.));
#231=DIRECTION('',(0.,0.,1.));
#232=DIRECTION('',(0.,1.,0.));
#233=DIRECTION('',(-0.391586343594083,0.,-0.920141367133669));
#234=DIRECTION('',(0.,1.,0.));
#235=DIRECTION('',(-0.391586343594083,0.,-0.920141367133669));
#236=DIRECTION('',(-5.6340548230335E-17,1.,2.39769562217694E-17));
#237=DIRECTION('',(0.,-1.,0.));
#238=DIRECTION('',(0.,0.,-1.));
#239=DIRECTION('',(0.,-1.,0.));
#240=DIRECTION('',(-0.391586343594083,0.,0.920141367133669));
#241=DIRECTION('',(5.6340548230335E-17,-1.,2.39769562217693E-17));
#242=DIRECTION('',(0.,-1.,0.));
#243=DIRECTION('',(-0.391586343594083,0.,0.920141367133669));
#244=DIRECTION('',(0.,-1.,0.));
#245=DIRECTION('',(0.,0.,-1.));
#246=DIRECTION('',(0.,-1.,0.));
#247=DIRECTION('',(-0.391586343594083,0.,0.920141367133668));
#248=DIRECTION('',(0.,-1.,0.));
#249=DIRECTION('',(-0.391586343594083,0.,0.920141367133668));
#250=DIRECTION('',(-5.6340548230335E-17,1.,-2.39769562217693E-17));
#251=DIRECTION('',(0.,1.,0.));
#252=DIRECTION('',(0.,0.,1.));
#253=DIRECTION('',(0.,1.,0.));
#254=DIRECTION('',(0.331645073270026,0.,0.943404232222709));
#255=DIRECTION('',(0.,1.,0.));
#256=DIRECTION('',(0.331645073270026,0.,0.943404232222709));
#257=DIRECTION('',(0.,-1.,0.));
#258=DIRECTION('',(0.,0.,-1.));
#259=DIRECTION('',(0.,1.,0.));
#260=DIRECTION('',(0.331645073270025,0.,0.943404232222709));
#261=DIRECTION('',(0.,-1.,0.));
#262=DIRECTION('',(0.,0.,-1.));
#263=DIRECTION('',(0.,1.,0.));
#264=DIRECTION('',(0.,0.,1.));
#265=DIRECTION('',(0.,1.,0.));
#266=DIRECTION('',(0.331645073270025,0.,0.943404232222709));
#267=DIRECTION('',(0.,1.,0.));
#268=DIRECTION('',(0.,0.,1.));
#269=DIRECTION('',(0.,1.,0.));
#270=DIRECTION('',(0.,0.,1.));
#271=DIRECTION('',(0.,-1.,0.));
#272=DIRECTION('',(-1.,0.,0.));
#273=CARTESIAN_POINT('',(0.,0.,0.));
#274=CARTESIAN_POINT('',(6.85,0.,38.5));
#275=CARTESIAN_POINT('',(4.73930217486764,-1.54,39.758314225852));
#276=CARTESIAN_POINT('',(4.33940837821881,-1.15014255075344,39.5646626799785));
#277=CARTESIAN_POINT('',(3.84920437783899,-0.00339255123800453,39.2418741089533));
#278=CARTESIAN_POINT('',(4.33918769477847,1.14992740592284,39.5645558123808));
#279=CARTESIAN_POINT('',(4.73930217486764,1.54,39.758314225852));
#280=CARTESIAN_POINT('',(4.73930217486764,-1.54,39.758314225852));
#281=CARTESIAN_POINT('',(4.73930217486764,1.54,39.758314225852));
#282=CARTESIAN_POINT('',(6.85,-1.54,38.5));
#283=CARTESIAN_POINT('',(4.74396602509183,-1.54,37.2338953848388));
#284=CARTESIAN_POINT('',(4.74396602509182,1.54,37.2338953848388));
#285=CARTESIAN_POINT('',(4.51615498469073,1.07810925518923,37.0510242750647));
#286=CARTESIAN_POINT('',(4.29813135645509,0.00447376717239458,36.8233154016311));
#287=CARTESIAN_POINT('',(4.51615099049995,-1.07810115689974,37.0510210688017));
#288=CARTESIAN_POINT('',(4.74396602509182,-1.54000000000001,37.2338953848388));
#289=CARTESIAN_POINT('',(4.74396602509182,1.54,37.2338953848388));
#290=CARTESIAN_POINT('',(6.85,1.54,38.5));
#291=CARTESIAN_POINT('',(7.8135100217565,0.,33.4100217707906));
#292=CARTESIAN_POINT('',(7.8135100217565,1.54,33.4100217707906));
#293=CARTESIAN_POINT('',(5.89337447109095,1.54,28.8981275753617));
#294=CARTESIAN_POINT('',(7.8135100217565,-1.54,33.4100217707906));
#295=CARTESIAN_POINT('',(5.89337447109095,-1.54,28.8981275753617));
#296=CARTESIAN_POINT('',(5.89337447109095,1.54,28.8981275753617));
#297=CARTESIAN_POINT('',(7.8135100217565,0.,33.4100217707906));
#298=CARTESIAN_POINT('',(7.8135100217565,-1.54,33.4100217707906));
#299=CARTESIAN_POINT('',(5.05146383236367,-1.54,26.9198236360243));
#300=CARTESIAN_POINT('',(7.8135100217565,1.54,33.4100217707906));
#301=CARTESIAN_POINT('',(5.05146383236367,1.54,26.9198236360243));
#302=CARTESIAN_POINT('',(5.05146383236367,-1.54,26.9198236360243));
#303=CARTESIAN_POINT('',(0.,0.,15.05));
#304=CARTESIAN_POINT('',(0.,-1.54,15.05));
#305=CARTESIAN_POINT('',(-5.89337447109095,-1.54,28.8981275753617));
#306=CARTESIAN_POINT('',(-5.89337447109095,1.54,28.8981275753617));
#307=CARTESIAN_POINT('',(-5.89337447109095,1.54,28.8981275753617));
#308=CARTESIAN_POINT('',(0.,1.54,15.05));
#309=CARTESIAN_POINT('',(0.,0.,15.05));
#310=CARTESIAN_POINT('',(0.,-1.54,15.05));
#311=CARTESIAN_POINT('',(-5.05146383236367,-1.54,26.9198236360243));
#312=CARTESIAN_POINT('',(0.,1.54,15.05));
#313=CARTESIAN_POINT('',(-5.05146383236367,1.54,26.9198236360243));
#314=CARTESIAN_POINT('',(-5.05146383236367,-1.54,26.9198236360243));
#315=CARTESIAN_POINT('',(-7.8135100217565,0.,33.4100217707906));
#316=CARTESIAN_POINT('',(-7.8135100217565,-1.54,33.4100217707906));
#317=CARTESIAN_POINT('',(-4.74396602509182,-1.54,37.2338953848388));
#318=CARTESIAN_POINT('',(-4.74396602509182,-1.54,37.2338953848388));
#319=CARTESIAN_POINT('',(-4.51615498469073,-1.07810925518923,37.0510242750647));
#320=CARTESIAN_POINT('',(-4.29813135645509,-0.00447376717239403,36.8233154016311));
#321=CARTESIAN_POINT('',(-4.51615099049995,1.07810115689974,37.0510210688017));
#322=CARTESIAN_POINT('',(-4.74396602509183,1.54,37.2338953848388));
#323=CARTESIAN_POINT('',(-4.74396602509183,1.54,37.2338953848388));
#324=CARTESIAN_POINT('',(-7.8135100217565,1.54,33.4100217707906));
#325=CARTESIAN_POINT('',(-6.18729525250763,-1.54,38.0359849448714));
#326=CARTESIAN_POINT('',(-7.8135100217565,-1.54,33.4100217707906));
#327=CARTESIAN_POINT('',(-4.73930217486764,-1.54,39.758314225852));
#328=CARTESIAN_POINT('',(-6.85,-1.54,38.5));
#329=CARTESIAN_POINT('',(-7.8135100217565,0.,33.4100217707906));
#330=CARTESIAN_POINT('',(-7.8135100217565,1.54,33.4100217707906));
#331=CARTESIAN_POINT('',(-4.73930217486764,1.54,39.758314225852));
#332=CARTESIAN_POINT('',(-4.73930217486764,1.54,39.758314225852));
#333=CARTESIAN_POINT('',(-4.33940837821881,1.15014255075344,39.5646626799785));
#334=CARTESIAN_POINT('',(-3.84920437783899,0.00339255123800648,39.2418741089533));
#335=CARTESIAN_POINT('',(-4.33918769477847,-1.14992740592284,39.5645558123808));
#336=CARTESIAN_POINT('',(-4.73930217486764,-1.54,39.758314225852));
#337=CARTESIAN_POINT('',(-5.47425834497708,1.54,40.0643040441502));
#338=CARTESIAN_POINT('',(-6.85,1.54,38.5));
#339=CARTESIAN_POINT('',(-6.85,0.,38.5));
#340=MECHANICAL_DESIGN_GEOMETRIC_PRESENTATION_REPRESENTATION('',(#177),
#341);
#341=(
GEOMETRIC_REPRESENTATION_CONTEXT(3)
GLOBAL_UNCERTAINTY_ASSIGNED_CONTEXT((#342))
GLOBAL_UNIT_ASSIGNED_CONTEXT((#345,#344,#343))
REPRESENTATION_CONTEXT('520009000','TOP_LEVEL_ASSEMBLY_PART')
);
#342=UNCERTAINTY_MEASURE_WITH_UNIT(LENGTH_MEASURE(0.005),#345,
'DISTANCE_ACCURACY_VALUE','Maximum Tolerance applied to model');
#343=(
NAMED_UNIT(*)
SI_UNIT($,.STERADIAN.)
SOLID_ANGLE_UNIT()
);
#344=(
NAMED_UNIT(*)
PLANE_ANGLE_UNIT()
SI_UNIT($,.RADIAN.)
);
#345=(
LENGTH_UNIT()
NAMED_UNIT(*)
SI_UNIT(.MILLI.,.METRE.)
);
#346=PRODUCT_DEFINITION_SHAPE('','',#347);
#347=PRODUCT_DEFINITION('','',#349,#348);
#348=PRODUCT_DEFINITION_CONTEXT('',#355,'design');
#349=PRODUCT_DEFINITION_FORMATION_WITH_SPECIFIED_SOURCE('','',#351,
 .NOT_KNOWN.);
#350=PRODUCT_RELATED_PRODUCT_CATEGORY('','',(#351));
#351=PRODUCT('520009000','520009000','520009000',(#353));
#352=PRODUCT_CATEGORY('','');
#353=PRODUCT_CONTEXT('',#355,'mechanical');
#354=APPLICATION_PROTOCOL_DEFINITION('international standard',
'automotive_design',2010,#355);
#355=APPLICATION_CONTEXT(
'core data for automotive mechanical design processes');
ENDSEC;
END-ISO-10303-21;
