ISO-10303-21;
HEADER;
/* Generated by software containing ST-Developer
 * from STEP Tools, Inc. (www.steptools.com) 
 */
/* OPTION: strings as raw bytes, not using required /X/ escapes */

FILE_DESCRIPTION(
/* description */ ('Unknown'),
/* implementation_level */ '2;1');

FILE_NAME(
/* name */ '520006000',
/* time_stamp */ '2019-01-11T10:09:41+01:00',
/* author */ ('Unknown'),
/* organization */ ('Unknown'),
/* preprocessor_version */ 'ST-DEVELOPER v16.7',
/* originating_system */ 'DEX',
/* authorisation */ $);

FILE_SCHEMA (('AUTOMOTIVE_DESIGN {1 0 10303 214 3 1 1}'));
ENDSEC;

DATA;
#10=PROPERTY_DEFINITION_REPRESENTATION(#14,#12);
#11=PROPERTY_DEFINITION_REPRESENTATION(#15,#13);
#12=REPRESENTATION('',(#16),#339);
#13=REPRESENTATION('',(#17),#339);
#14=PROPERTY_DEFINITION('pmi validation property','',#344);
#15=PROPERTY_DEFINITION('pmi validation property','',#344);
#16=VALUE_REPRESENTATION_ITEM('number of annotations',COUNT_MEASURE(0.));
#17=VALUE_REPRESENTATION_ITEM('number of views',COUNT_MEASURE(0.));
#18=SHAPE_REPRESENTATION_RELATIONSHIP('','',#187,#19);
#19=ADVANCED_BREP_SHAPE_REPRESENTATION('',(#185),#339);
#20=PLANE('',#207);
#21=PLANE('',#212);
#22=LINE('',#295,#26);
#23=LINE('',#301,#27);
#24=LINE('',#305,#28);
#25=LINE('',#313,#29);
#26=VECTOR('',#229,1000.);
#27=VECTOR('',#236,1000.);
#28=VECTOR('',#241,1000.);
#29=VECTOR('',#250,1000.);
#30=CYLINDRICAL_SURFACE('',#192,10.);
#31=CYLINDRICAL_SURFACE('',#195,8.);
#32=CYLINDRICAL_SURFACE('',#198,7.7);
#33=CYLINDRICAL_SURFACE('',#201,9.7);
#34=CYLINDRICAL_SURFACE('',#204,10.);
#35=CYLINDRICAL_SURFACE('',#210,8.);
#36=CIRCLE('',#190,2.44655369857275);
#37=CIRCLE('',#191,2.44655369857275);
#38=CIRCLE('',#193,10.);
#39=CIRCLE('',#194,10.);
#40=CIRCLE('',#196,8.);
#41=CIRCLE('',#197,8.);
#42=CIRCLE('',#199,7.7);
#43=CIRCLE('',#200,7.7);
#44=CIRCLE('',#202,9.7);
#45=CIRCLE('',#203,9.7);
#46=CIRCLE('',#205,10.);
#47=CIRCLE('',#206,10.);
#48=CIRCLE('',#208,8.);
#49=CIRCLE('',#209,2.44655369857275);
#50=CIRCLE('',#211,8.);
#51=CIRCLE('',#213,2.44655369857275);
#52=ORIENTED_EDGE('',*,*,#100,.F.);
#53=ORIENTED_EDGE('',*,*,#101,.F.);
#54=ORIENTED_EDGE('',*,*,#102,.F.);
#55=ORIENTED_EDGE('',*,*,#103,.F.);
#56=ORIENTED_EDGE('',*,*,#104,.T.);
#57=ORIENTED_EDGE('',*,*,#102,.T.);
#58=ORIENTED_EDGE('',*,*,#105,.F.);
#59=ORIENTED_EDGE('',*,*,#106,.T.);
#60=ORIENTED_EDGE('',*,*,#107,.T.);
#61=ORIENTED_EDGE('',*,*,#100,.T.);
#62=ORIENTED_EDGE('',*,*,#108,.F.);
#63=ORIENTED_EDGE('',*,*,#109,.T.);
#64=ORIENTED_EDGE('',*,*,#106,.F.);
#65=ORIENTED_EDGE('',*,*,#110,.F.);
#66=ORIENTED_EDGE('',*,*,#111,.T.);
#67=ORIENTED_EDGE('',*,*,#112,.T.);
#68=ORIENTED_EDGE('',*,*,#113,.T.);
#69=ORIENTED_EDGE('',*,*,#109,.F.);
#70=ORIENTED_EDGE('',*,*,#114,.F.);
#71=ORIENTED_EDGE('',*,*,#115,.T.);
#72=ORIENTED_EDGE('',*,*,#116,.F.);
#73=ORIENTED_EDGE('',*,*,#117,.T.);
#74=ORIENTED_EDGE('',*,*,#118,.T.);
#75=ORIENTED_EDGE('',*,*,#111,.F.);
#76=ORIENTED_EDGE('',*,*,#119,.F.);
#77=ORIENTED_EDGE('',*,*,#120,.T.);
#78=ORIENTED_EDGE('',*,*,#116,.T.);
#79=ORIENTED_EDGE('',*,*,#110,.T.);
#80=ORIENTED_EDGE('',*,*,#105,.T.);
#81=ORIENTED_EDGE('',*,*,#101,.T.);
#82=ORIENTED_EDGE('',*,*,#107,.F.);
#83=ORIENTED_EDGE('',*,*,#113,.F.);
#84=ORIENTED_EDGE('',*,*,#121,.F.);
#85=ORIENTED_EDGE('',*,*,#122,.T.);
#86=ORIENTED_EDGE('',*,*,#119,.T.);
#87=ORIENTED_EDGE('',*,*,#115,.F.);
#88=ORIENTED_EDGE('',*,*,#118,.F.);
#89=ORIENTED_EDGE('',*,*,#123,.T.);
#90=ORIENTED_EDGE('',*,*,#121,.T.);
#91=ORIENTED_EDGE('',*,*,#114,.T.);
#92=ORIENTED_EDGE('',*,*,#108,.T.);
#93=ORIENTED_EDGE('',*,*,#103,.T.);
#94=ORIENTED_EDGE('',*,*,#104,.F.);
#95=ORIENTED_EDGE('',*,*,#112,.F.);
#96=ORIENTED_EDGE('',*,*,#123,.F.);
#97=ORIENTED_EDGE('',*,*,#117,.F.);
#98=ORIENTED_EDGE('',*,*,#120,.F.);
#99=ORIENTED_EDGE('',*,*,#122,.F.);
#100=EDGE_CURVE('',#124,#125,#140,.T.);
#101=EDGE_CURVE('',#126,#124,#36,.F.);
#102=EDGE_CURVE('',#127,#126,#141,.T.);
#103=EDGE_CURVE('',#125,#127,#37,.F.);
#104=EDGE_CURVE('',#128,#127,#38,.T.);
#105=EDGE_CURVE('',#129,#126,#39,.T.);
#106=EDGE_CURVE('',#129,#128,#22,.F.);
#107=EDGE_CURVE('',#130,#124,#40,.T.);
#108=EDGE_CURVE('',#131,#125,#41,.T.);
#109=EDGE_CURVE('',#131,#130,#23,.F.);
#110=EDGE_CURVE('',#132,#129,#42,.T.);
#111=EDGE_CURVE('',#132,#133,#24,.F.);
#112=EDGE_CURVE('',#133,#128,#43,.T.);
#113=EDGE_CURVE('',#134,#130,#44,.T.);
#114=EDGE_CURVE('',#135,#131,#45,.T.);
#115=EDGE_CURVE('',#135,#134,#25,.F.);
#116=EDGE_CURVE('',#136,#132,#46,.T.);
#117=EDGE_CURVE('',#136,#137,#142,.T.);
#118=EDGE_CURVE('',#137,#133,#47,.T.);
#119=EDGE_CURVE('',#138,#134,#48,.T.);
#120=EDGE_CURVE('',#138,#136,#49,.F.);
#121=EDGE_CURVE('',#139,#135,#50,.T.);
#122=EDGE_CURVE('',#139,#138,#143,.T.);
#123=EDGE_CURVE('',#137,#139,#51,.F.);
#124=VERTEX_POINT('',#279);
#125=VERTEX_POINT('',#280);
#126=VERTEX_POINT('',#282);
#127=VERTEX_POINT('',#288);
#128=VERTEX_POINT('',#292);
#129=VERTEX_POINT('',#294);
#130=VERTEX_POINT('',#298);
#131=VERTEX_POINT('',#300);
#132=VERTEX_POINT('',#304);
#133=VERTEX_POINT('',#306);
#134=VERTEX_POINT('',#310);
#135=VERTEX_POINT('',#312);
#136=VERTEX_POINT('',#316);
#137=VERTEX_POINT('',#322);
#138=VERTEX_POINT('',#326);
#139=VERTEX_POINT('',#330);
#140=B_SPLINE_CURVE_WITH_KNOTS('',3,(#275,#276,#277,#278),.UNSPECIFIED.,
 .F.,.F.,(4,4),(3.33540653275513E-7,0.00247296589707169),.UNSPECIFIED.);
#141=B_SPLINE_CURVE_WITH_KNOTS('',3,(#283,#284,#285,#286,#287),
 .UNSPECIFIED.,.F.,.F.,(4,1,4),(4.1087650114553E-7,0.00132164738870696,
0.00264288390091277),.UNSPECIFIED.);
#142=B_SPLINE_CURVE_WITH_KNOTS('',3,(#317,#318,#319,#320,#321),
 .UNSPECIFIED.,.F.,.F.,(4,1,4),(4.10876501161882E-7,0.00132164738870697,
0.00264288390091278),.UNSPECIFIED.);
#143=B_SPLINE_CURVE_WITH_KNOTS('',3,(#331,#332,#333,#334),.UNSPECIFIED.,
 .F.,.F.,(4,4),(3.33540645388207E-7,0.00247296589707169),.UNSPECIFIED.);
#144=EDGE_LOOP('',(#52,#53,#54,#55));
#145=EDGE_LOOP('',(#56,#57,#58,#59));
#146=EDGE_LOOP('',(#60,#61,#62,#63));
#147=EDGE_LOOP('',(#64,#65,#66,#67));
#148=EDGE_LOOP('',(#68,#69,#70,#71));
#149=EDGE_LOOP('',(#72,#73,#74,#75));
#150=EDGE_LOOP('',(#76,#77,#78,#79,#80,#81,#82,#83));
#151=EDGE_LOOP('',(#84,#85,#86,#87));
#152=EDGE_LOOP('',(#88,#89,#90,#91,#92,#93,#94,#95));
#153=EDGE_LOOP('',(#96,#97,#98,#99));
#154=FACE_BOUND('',#144,.T.);
#155=FACE_BOUND('',#145,.T.);
#156=FACE_BOUND('',#146,.T.);
#157=FACE_BOUND('',#147,.T.);
#158=FACE_BOUND('',#148,.T.);
#159=FACE_BOUND('',#149,.T.);
#160=FACE_BOUND('',#150,.T.);
#161=FACE_BOUND('',#151,.T.);
#162=FACE_BOUND('',#152,.T.);
#163=FACE_BOUND('',#153,.T.);
#164=SPHERICAL_SURFACE('',#189,2.725);
#165=SPHERICAL_SURFACE('',#214,2.725);
#166=ADVANCED_FACE('',(#154),#164,.T.);
#167=ADVANCED_FACE('',(#155),#30,.T.);
#168=ADVANCED_FACE('',(#156),#31,.F.);
#169=ADVANCED_FACE('',(#157),#32,.F.);
#170=ADVANCED_FACE('',(#158),#33,.T.);
#171=ADVANCED_FACE('',(#159),#34,.T.);
#172=ADVANCED_FACE('',(#160),#20,.T.);
#173=ADVANCED_FACE('',(#161),#35,.F.);
#174=ADVANCED_FACE('',(#162),#21,.T.);
#175=ADVANCED_FACE('',(#163),#165,.T.);
#176=CLOSED_SHELL('',(#166,#167,#168,#169,#170,#171,#172,#173,#174,#175));
#177=STYLED_ITEM('',(#178),#185);
#178=PRESENTATION_STYLE_ASSIGNMENT((#179));
#179=SURFACE_STYLE_USAGE(.BOTH.,#180);
#180=SURFACE_SIDE_STYLE('',(#181));
#181=SURFACE_STYLE_FILL_AREA(#182);
#182=FILL_AREA_STYLE('',(#183));
#183=FILL_AREA_STYLE_COLOUR('',#184);
#184=COLOUR_RGB('',0.645180702209473,0.678915679454803,0.699999988079071);
#185=MANIFOLD_SOLID_BREP('',#176);
#186=SHAPE_DEFINITION_REPRESENTATION(#344,#187);
#187=SHAPE_REPRESENTATION('520006000',(#188),#339);
#188=AXIS2_PLACEMENT_3D('',#273,#215,#216);
#189=AXIS2_PLACEMENT_3D('',#274,#217,#218);
#190=AXIS2_PLACEMENT_3D('',#281,#219,#220);
#191=AXIS2_PLACEMENT_3D('',#289,#221,#222);
#192=AXIS2_PLACEMENT_3D('',#290,#223,#224);
#193=AXIS2_PLACEMENT_3D('',#291,#225,#226);
#194=AXIS2_PLACEMENT_3D('',#293,#227,#228);
#195=AXIS2_PLACEMENT_3D('',#296,#230,#231);
#196=AXIS2_PLACEMENT_3D('',#297,#232,#233);
#197=AXIS2_PLACEMENT_3D('',#299,#234,#235);
#198=AXIS2_PLACEMENT_3D('',#302,#237,#238);
#199=AXIS2_PLACEMENT_3D('',#303,#239,#240);
#200=AXIS2_PLACEMENT_3D('',#307,#242,#243);
#201=AXIS2_PLACEMENT_3D('',#308,#244,#245);
#202=AXIS2_PLACEMENT_3D('',#309,#246,#247);
#203=AXIS2_PLACEMENT_3D('',#311,#248,#249);
#204=AXIS2_PLACEMENT_3D('',#314,#251,#252);
#205=AXIS2_PLACEMENT_3D('',#315,#253,#254);
#206=AXIS2_PLACEMENT_3D('',#323,#255,#256);
#207=AXIS2_PLACEMENT_3D('',#324,#257,#258);
#208=AXIS2_PLACEMENT_3D('',#325,#259,#260);
#209=AXIS2_PLACEMENT_3D('',#327,#261,#262);
#210=AXIS2_PLACEMENT_3D('',#328,#263,#264);
#211=AXIS2_PLACEMENT_3D('',#329,#265,#266);
#212=AXIS2_PLACEMENT_3D('',#335,#267,#268);
#213=AXIS2_PLACEMENT_3D('',#336,#269,#270);
#214=AXIS2_PLACEMENT_3D('',#337,#271,#272);
#215=DIRECTION('',(0.,0.,1.));
#216=DIRECTION('',(1.,0.,0.));
#217=DIRECTION('',(0.,1.,0.));
#218=DIRECTION('',(-1.,0.,0.));
#219=DIRECTION('',(0.,1.,0.));
#220=DIRECTION('',(0.,0.,1.));
#221=DIRECTION('',(0.,-1.,0.));
#222=DIRECTION('',(0.,0.,-1.));
#223=DIRECTION('',(0.,1.,0.));
#224=DIRECTION('',(0.,0.,1.));
#225=DIRECTION('',(0.,1.,0.));
#226=DIRECTION('',(-0.735252036055452,0.,-0.67779380601796));
#227=DIRECTION('',(0.,1.,0.));
#228=DIRECTION('',(-0.735252036055452,0.,-0.67779380601796));
#229=DIRECTION('',(-4.15015300715523E-17,1.,4.50197157507173E-17));
#230=DIRECTION('',(0.,1.,0.));
#231=DIRECTION('',(0.,0.,1.));
#232=DIRECTION('',(0.,1.,0.));
#233=DIRECTION('',(-0.735252036055452,0.,-0.67779380601796));
#234=DIRECTION('',(0.,1.,0.));
#235=DIRECTION('',(-0.735252036055452,0.,-0.67779380601796));
#236=DIRECTION('',(4.15015300715523E-17,-1.,-4.50197157507173E-17));
#237=DIRECTION('',(0.,-1.,0.));
#238=DIRECTION('',(0.,0.,-1.));
#239=DIRECTION('',(0.,-1.,0.));
#240=DIRECTION('',(-0.735252036055452,0.,0.67779380601796));
#241=DIRECTION('',(-4.15015300715523E-17,1.,-4.50197157507174E-17));
#242=DIRECTION('',(0.,-1.,0.));
#243=DIRECTION('',(-0.735252036055452,0.,0.67779380601796));
#244=DIRECTION('',(0.,-1.,0.));
#245=DIRECTION('',(0.,0.,-1.));
#246=DIRECTION('',(0.,-1.,0.));
#247=DIRECTION('',(-0.735252036055452,0.,0.67779380601796));
#248=DIRECTION('',(0.,-1.,0.));
#249=DIRECTION('',(-0.735252036055452,0.,0.67779380601796));
#250=DIRECTION('',(4.15015300715523E-17,-1.,4.50197157507174E-17));
#251=DIRECTION('',(0.,1.,0.));
#252=DIRECTION('',(0.,0.,1.));
#253=DIRECTION('',(0.,1.,0.));
#254=DIRECTION('',(0.721498481163335,0.,0.692416017780496));
#255=DIRECTION('',(0.,1.,0.));
#256=DIRECTION('',(0.721498481163335,0.,0.692416017780496));
#257=DIRECTION('',(0.,1.,0.));
#258=DIRECTION('',(0.,0.,1.));
#259=DIRECTION('',(0.,1.,0.));
#260=DIRECTION('',(0.721498481163335,0.,0.692416017780496));
#261=DIRECTION('',(0.,1.,0.));
#262=DIRECTION('',(0.,0.,1.));
#263=DIRECTION('',(0.,1.,0.));
#264=DIRECTION('',(0.,0.,1.));
#265=DIRECTION('',(0.,1.,0.));
#266=DIRECTION('',(0.721498481163335,0.,0.692416017780496));
#267=DIRECTION('',(0.,-1.,0.));
#268=DIRECTION('',(0.,0.,-1.));
#269=DIRECTION('',(0.,-1.,0.));
#270=DIRECTION('',(0.,0.,-1.));
#271=DIRECTION('',(0.,-1.,0.));
#272=DIRECTION('',(-1.,0.,0.));
#273=CARTESIAN_POINT('',(0.,0.,0.));
#274=CARTESIAN_POINT('',(7.675,0.,27.675));
#275=CARTESIAN_POINT('',(6.13215176127304,1.2,25.7762519092157));
#276=CARTESIAN_POINT('',(5.94278610158839,0.451051067321325,25.4567907612948));
#277=CARTESIAN_POINT('',(5.94277732297348,-0.451016347540167,25.4567759517121));
#278=CARTESIAN_POINT('',(6.13215176127304,-1.2,25.7762519092157));
#279=CARTESIAN_POINT('',(6.13215176127304,1.2,25.7762519092157));
#280=CARTESIAN_POINT('',(6.13215176127304,-1.2,25.7762519092157));
#281=CARTESIAN_POINT('',(7.675,1.2,27.675));
#282=CARTESIAN_POINT('',(5.25005858297042,1.2,27.9994751515518));
#283=CARTESIAN_POINT('',(5.25005858297042,-1.2,27.9994751515518));
#284=CARTESIAN_POINT('',(5.05755217020941,-0.875108590280051,27.762331933293));
#285=CARTESIAN_POINT('',(4.84395767705569,-0.00149201563524691,27.4611379319816));
#286=CARTESIAN_POINT('',(5.05747316971321,0.874975261825114,27.7622346148108));
#287=CARTESIAN_POINT('',(5.25005858297042,1.2,27.9994751515518));
#288=CARTESIAN_POINT('',(5.25005858297043,-1.2,27.9994751515518));
#289=CARTESIAN_POINT('',(7.675,-1.2,27.675));
#290=CARTESIAN_POINT('',(13.0139610381815,0.,21.6969503665179));
#291=CARTESIAN_POINT('',(13.0139610381815,-1.2,21.6969503665179));
#292=CARTESIAN_POINT('',(5.66144067762699,-1.2,14.9190123063383));
#293=CARTESIAN_POINT('',(13.0139610381815,1.2,21.6969503665179));
#294=CARTESIAN_POINT('',(5.66144067762699,1.2,14.9190123063383));
#295=CARTESIAN_POINT('',(5.66144067762698,-1.2,14.9190123063383));
#296=CARTESIAN_POINT('',(13.0139610381815,0.,21.6969503665179));
#297=CARTESIAN_POINT('',(13.0139610381815,1.2,21.6969503665179));
#298=CARTESIAN_POINT('',(7.13194474973789,1.2,16.2745999183742));
#299=CARTESIAN_POINT('',(13.0139610381815,-1.2,21.6969503665179));
#300=CARTESIAN_POINT('',(7.13194474973789,-1.2,16.2745999183742));
#301=CARTESIAN_POINT('',(7.13194474973789,1.2,16.2745999183742));
#302=CARTESIAN_POINT('',(0.,0.,9.7));
#303=CARTESIAN_POINT('',(0.,1.2,9.7));
#304=CARTESIAN_POINT('',(-5.66144067762698,1.2,14.9190123063383));
#305=CARTESIAN_POINT('',(-5.66144067762698,-1.2,14.9190123063383));
#306=CARTESIAN_POINT('',(-5.66144067762698,-1.2,14.9190123063383));
#307=CARTESIAN_POINT('',(0.,-1.2,9.7));
#308=CARTESIAN_POINT('',(0.,0.,9.7));
#309=CARTESIAN_POINT('',(0.,1.2,9.7));
#310=CARTESIAN_POINT('',(-7.13194474973789,1.2,16.2745999183742));
#311=CARTESIAN_POINT('',(0.,-1.2,9.7));
#312=CARTESIAN_POINT('',(-7.13194474973789,-1.2,16.2745999183742));
#313=CARTESIAN_POINT('',(-7.13194474973789,1.2,16.2745999183742));
#314=CARTESIAN_POINT('',(-13.0139610381815,0.,21.6969503665179));
#315=CARTESIAN_POINT('',(-13.0139610381815,1.2,21.6969503665179));
#316=CARTESIAN_POINT('',(-5.25005858297042,1.2,27.9994751515518));
#317=CARTESIAN_POINT('',(-5.25005858297042,1.2,27.9994751515518));
#318=CARTESIAN_POINT('',(-5.05755217020941,0.875108590280054,27.762331933293));
#319=CARTESIAN_POINT('',(-4.84395767705569,0.00149201563524529,27.4611379319817));
#320=CARTESIAN_POINT('',(-5.05747316971321,-0.874975261825116,27.7622346148108));
#321=CARTESIAN_POINT('',(-5.25005858297042,-1.2,27.9994751515518));
#322=CARTESIAN_POINT('',(-5.25005858297042,-1.2,27.9994751515518));
#323=CARTESIAN_POINT('',(-13.0139610381815,-1.2,21.6969503665179));
#324=CARTESIAN_POINT('',(-5.79897622654815,1.2,28.6211105443229));
#325=CARTESIAN_POINT('',(-13.0139610381815,1.2,21.6969503665179));
#326=CARTESIAN_POINT('',(-6.13215176127304,1.2,25.7762519092157));
#327=CARTESIAN_POINT('',(-7.675,1.2,27.675));
#328=CARTESIAN_POINT('',(-13.0139610381815,0.,21.6969503665179));
#329=CARTESIAN_POINT('',(-13.0139610381815,-1.2,21.6969503665179));
#330=CARTESIAN_POINT('',(-6.13215176127485,-1.20000000000717,25.7762519092187));
#331=CARTESIAN_POINT('',(-6.13215176127485,-1.20000000000717,25.7762519092187));
#332=CARTESIAN_POINT('',(-5.94278610158824,-0.451051067326819,25.4567907612949));
#333=CARTESIAN_POINT('',(-5.94277732297288,0.451016347537779,25.4567759517111));
#334=CARTESIAN_POINT('',(-6.13215176127304,1.2,25.7762519092157));
#335=CARTESIAN_POINT('',(-7.24197318887482,-1.2,27.2362785087619));
#336=CARTESIAN_POINT('',(-7.675,-1.2,27.675));
#337=CARTESIAN_POINT('',(-7.675,0.,27.675));
#338=MECHANICAL_DESIGN_GEOMETRIC_PRESENTATION_REPRESENTATION('',(#177),
#339);
#339=(
GEOMETRIC_REPRESENTATION_CONTEXT(3)
GLOBAL_UNCERTAINTY_ASSIGNED_CONTEXT((#340))
GLOBAL_UNIT_ASSIGNED_CONTEXT((#343,#342,#341))
REPRESENTATION_CONTEXT('520006000','TOP_LEVEL_ASSEMBLY_PART')
);
#340=UNCERTAINTY_MEASURE_WITH_UNIT(LENGTH_MEASURE(0.005),#343,
'DISTANCE_ACCURACY_VALUE','Maximum Tolerance applied to model');
#341=(
NAMED_UNIT(*)
SI_UNIT($,.STERADIAN.)
SOLID_ANGLE_UNIT()
);
#342=(
NAMED_UNIT(*)
PLANE_ANGLE_UNIT()
SI_UNIT($,.RADIAN.)
);
#343=(
LENGTH_UNIT()
NAMED_UNIT(*)
SI_UNIT(.MILLI.,.METRE.)
);
#344=PRODUCT_DEFINITION_SHAPE('','',#345);
#345=PRODUCT_DEFINITION('','',#347,#346);
#346=PRODUCT_DEFINITION_CONTEXT('',#353,'design');
#347=PRODUCT_DEFINITION_FORMATION_WITH_SPECIFIED_SOURCE('','',#349,
 .NOT_KNOWN.);
#348=PRODUCT_RELATED_PRODUCT_CATEGORY('','',(#349));
#349=PRODUCT('520006000','520006000','520006000',(#351));
#350=PRODUCT_CATEGORY('','');
#351=PRODUCT_CONTEXT('',#353,'mechanical');
#352=APPLICATION_PROTOCOL_DEFINITION('international standard',
'automotive_design',2010,#353);
#353=APPLICATION_CONTEXT(
'core data for automotive mechanical design processes');
ENDSEC;
END-ISO-10303-21;
