ISO-10303-21;
HEADER;
/* Generated by software containing ST-Developer
 * from STEP Tools, Inc. (www.steptools.com) 
 */
/* OPTION: strings as raw bytes, not using required /X/ escapes */

FILE_DESCRIPTION(
/* description */ ('Unknown'),
/* implementation_level */ '2;1');

FILE_NAME(
/* name */ '520005000',
/* time_stamp */ '2019-01-07T16:16:40+01:00',
/* author */ ('Unknown'),
/* organization */ ('Unknown'),
/* preprocessor_version */ 'ST-DEVELOPER v16.7',
/* originating_system */ 'DEX',
/* authorisation */ $);

FILE_SCHEMA (('AUTOMOTIVE_DESIGN {1 0 10303 214 3 1 1}'));
ENDSEC;

DATA;
#10=PROPERTY_DEFINITION_REPRESENTATION(#14,#12);
#11=PROPERTY_DEFINITION_REPRESENTATION(#15,#13);
#12=REPRESENTATION('',(#16),#337);
#13=REPRESENTATION('',(#17),#337);
#14=PROPERTY_DEFINITION('pmi validation property','',#342);
#15=PROPERTY_DEFINITION('pmi validation property','',#342);
#16=VALUE_REPRESENTATION_ITEM('number of annotations',COUNT_MEASURE(0.));
#17=VALUE_REPRESENTATION_ITEM('number of views',COUNT_MEASURE(0.));
#18=SHAPE_REPRESENTATION_RELATIONSHIP('','',#187,#19);
#19=ADVANCED_BREP_SHAPE_REPRESENTATION('',(#185),#337);
#20=PLANE('',#204);
#21=PLANE('',#210);
#22=LINE('',#294,#26);
#23=LINE('',#300,#27);
#24=LINE('',#306,#28);
#25=LINE('',#312,#29);
#26=VECTOR('',#229,1000.);
#27=VECTOR('',#236,1000.);
#28=VECTOR('',#243,1000.);
#29=VECTOR('',#250,1000.);
#30=CYLINDRICAL_SURFACE('',#192,11.);
#31=CYLINDRICAL_SURFACE('',#195,9.);
#32=CYLINDRICAL_SURFACE('',#198,6.6);
#33=CYLINDRICAL_SURFACE('',#201,8.6);
#34=CYLINDRICAL_SURFACE('',#208,11.);
#35=CYLINDRICAL_SURFACE('',#213,9.00000000000001);
#36=CIRCLE('',#190,2.26163657557973);
#37=CIRCLE('',#191,2.26163657557973);
#38=CIRCLE('',#193,11.);
#39=CIRCLE('',#194,11.);
#40=CIRCLE('',#196,9.);
#41=CIRCLE('',#197,9.);
#42=CIRCLE('',#199,6.6);
#43=CIRCLE('',#200,6.6);
#44=CIRCLE('',#202,8.6);
#45=CIRCLE('',#203,8.6);
#46=CIRCLE('',#205,11.);
#47=CIRCLE('',#206,2.26163657557973);
#48=CIRCLE('',#207,9.00000000000001);
#49=CIRCLE('',#209,11.);
#50=CIRCLE('',#211,9.00000000000001);
#51=CIRCLE('',#212,2.26163657557973);
#52=ORIENTED_EDGE('',*,*,#100,.F.);
#53=ORIENTED_EDGE('',*,*,#101,.F.);
#54=ORIENTED_EDGE('',*,*,#102,.F.);
#55=ORIENTED_EDGE('',*,*,#103,.F.);
#56=ORIENTED_EDGE('',*,*,#104,.T.);
#57=ORIENTED_EDGE('',*,*,#102,.T.);
#58=ORIENTED_EDGE('',*,*,#105,.F.);
#59=ORIENTED_EDGE('',*,*,#106,.T.);
#60=ORIENTED_EDGE('',*,*,#107,.T.);
#61=ORIENTED_EDGE('',*,*,#100,.T.);
#62=ORIENTED_EDGE('',*,*,#108,.F.);
#63=ORIENTED_EDGE('',*,*,#109,.T.);
#64=ORIENTED_EDGE('',*,*,#110,.T.);
#65=ORIENTED_EDGE('',*,*,#106,.F.);
#66=ORIENTED_EDGE('',*,*,#111,.F.);
#67=ORIENTED_EDGE('',*,*,#112,.T.);
#68=ORIENTED_EDGE('',*,*,#113,.T.);
#69=ORIENTED_EDGE('',*,*,#109,.F.);
#70=ORIENTED_EDGE('',*,*,#114,.F.);
#71=ORIENTED_EDGE('',*,*,#115,.T.);
#72=ORIENTED_EDGE('',*,*,#116,.F.);
#73=ORIENTED_EDGE('',*,*,#117,.T.);
#74=ORIENTED_EDGE('',*,*,#118,.T.);
#75=ORIENTED_EDGE('',*,*,#114,.T.);
#76=ORIENTED_EDGE('',*,*,#108,.T.);
#77=ORIENTED_EDGE('',*,*,#103,.T.);
#78=ORIENTED_EDGE('',*,*,#104,.F.);
#79=ORIENTED_EDGE('',*,*,#110,.F.);
#80=ORIENTED_EDGE('',*,*,#119,.F.);
#81=ORIENTED_EDGE('',*,*,#120,.T.);
#82=ORIENTED_EDGE('',*,*,#116,.T.);
#83=ORIENTED_EDGE('',*,*,#112,.F.);
#84=ORIENTED_EDGE('',*,*,#121,.F.);
#85=ORIENTED_EDGE('',*,*,#122,.T.);
#86=ORIENTED_EDGE('',*,*,#119,.T.);
#87=ORIENTED_EDGE('',*,*,#111,.T.);
#88=ORIENTED_EDGE('',*,*,#105,.T.);
#89=ORIENTED_EDGE('',*,*,#101,.T.);
#90=ORIENTED_EDGE('',*,*,#107,.F.);
#91=ORIENTED_EDGE('',*,*,#113,.F.);
#92=ORIENTED_EDGE('',*,*,#118,.F.);
#93=ORIENTED_EDGE('',*,*,#123,.T.);
#94=ORIENTED_EDGE('',*,*,#121,.T.);
#95=ORIENTED_EDGE('',*,*,#115,.F.);
#96=ORIENTED_EDGE('',*,*,#123,.F.);
#97=ORIENTED_EDGE('',*,*,#117,.F.);
#98=ORIENTED_EDGE('',*,*,#120,.F.);
#99=ORIENTED_EDGE('',*,*,#122,.F.);
#100=EDGE_CURVE('',#124,#125,#140,.T.);
#101=EDGE_CURVE('',#126,#124,#36,.F.);
#102=EDGE_CURVE('',#127,#126,#141,.T.);
#103=EDGE_CURVE('',#125,#127,#37,.F.);
#104=EDGE_CURVE('',#128,#127,#38,.T.);
#105=EDGE_CURVE('',#129,#126,#39,.T.);
#106=EDGE_CURVE('',#129,#128,#22,.F.);
#107=EDGE_CURVE('',#130,#124,#40,.T.);
#108=EDGE_CURVE('',#131,#125,#41,.T.);
#109=EDGE_CURVE('',#131,#130,#23,.F.);
#110=EDGE_CURVE('',#132,#128,#42,.T.);
#111=EDGE_CURVE('',#133,#129,#43,.T.);
#112=EDGE_CURVE('',#133,#132,#24,.F.);
#113=EDGE_CURVE('',#134,#130,#44,.T.);
#114=EDGE_CURVE('',#135,#131,#45,.T.);
#115=EDGE_CURVE('',#135,#134,#25,.F.);
#116=EDGE_CURVE('',#136,#132,#46,.T.);
#117=EDGE_CURVE('',#136,#137,#47,.F.);
#118=EDGE_CURVE('',#137,#135,#48,.T.);
#119=EDGE_CURVE('',#138,#133,#49,.T.);
#120=EDGE_CURVE('',#138,#136,#142,.T.);
#121=EDGE_CURVE('',#139,#134,#50,.T.);
#122=EDGE_CURVE('',#139,#138,#51,.F.);
#123=EDGE_CURVE('',#137,#139,#143,.T.);
#124=VERTEX_POINT('',#279);
#125=VERTEX_POINT('',#280);
#126=VERTEX_POINT('',#282);
#127=VERTEX_POINT('',#287);
#128=VERTEX_POINT('',#291);
#129=VERTEX_POINT('',#293);
#130=VERTEX_POINT('',#297);
#131=VERTEX_POINT('',#299);
#132=VERTEX_POINT('',#303);
#133=VERTEX_POINT('',#305);
#134=VERTEX_POINT('',#309);
#135=VERTEX_POINT('',#311);
#136=VERTEX_POINT('',#315);
#137=VERTEX_POINT('',#317);
#138=VERTEX_POINT('',#321);
#139=VERTEX_POINT('',#328);
#140=B_SPLINE_CURVE_WITH_KNOTS('',3,(#275,#276,#277,#278),.UNSPECIFIED.,
 .F.,.F.,(4,4),(3.20494399088546E-7,0.0017809747828812),.UNSPECIFIED.);
#141=B_SPLINE_CURVE_WITH_KNOTS('',3,(#283,#284,#285,#286),.UNSPECIFIED.,
 .F.,.F.,(4,4),(3.4465803664661E-7,0.00182433006350213),.UNSPECIFIED.);
#142=B_SPLINE_CURVE_WITH_KNOTS('',3,(#322,#323,#324,#325),.UNSPECIFIED.,
 .F.,.F.,(4,4),(3.44658036636718E-7,0.00182433006350213),.UNSPECIFIED.);
#143=B_SPLINE_CURVE_WITH_KNOTS('',3,(#331,#332,#333,#334),.UNSPECIFIED.,
 .F.,.F.,(4,4),(3.20494398912244E-7,0.00178097478288102),.UNSPECIFIED.);
#144=EDGE_LOOP('',(#52,#53,#54,#55));
#145=EDGE_LOOP('',(#56,#57,#58,#59));
#146=EDGE_LOOP('',(#60,#61,#62,#63));
#147=EDGE_LOOP('',(#64,#65,#66,#67));
#148=EDGE_LOOP('',(#68,#69,#70,#71));
#149=EDGE_LOOP('',(#72,#73,#74,#75,#76,#77,#78,#79));
#150=EDGE_LOOP('',(#80,#81,#82,#83));
#151=EDGE_LOOP('',(#84,#85,#86,#87,#88,#89,#90,#91));
#152=EDGE_LOOP('',(#92,#93,#94,#95));
#153=EDGE_LOOP('',(#96,#97,#98,#99));
#154=FACE_BOUND('',#144,.T.);
#155=FACE_BOUND('',#145,.T.);
#156=FACE_BOUND('',#146,.T.);
#157=FACE_BOUND('',#147,.T.);
#158=FACE_BOUND('',#148,.T.);
#159=FACE_BOUND('',#149,.T.);
#160=FACE_BOUND('',#150,.T.);
#161=FACE_BOUND('',#151,.T.);
#162=FACE_BOUND('',#152,.T.);
#163=FACE_BOUND('',#153,.T.);
#164=SPHERICAL_SURFACE('',#189,2.425);
#165=SPHERICAL_SURFACE('',#214,2.425);
#166=ADVANCED_FACE('',(#154),#164,.T.);
#167=ADVANCED_FACE('',(#155),#30,.T.);
#168=ADVANCED_FACE('',(#156),#31,.F.);
#169=ADVANCED_FACE('',(#157),#32,.F.);
#170=ADVANCED_FACE('',(#158),#33,.T.);
#171=ADVANCED_FACE('',(#159),#20,.T.);
#172=ADVANCED_FACE('',(#160),#34,.T.);
#173=ADVANCED_FACE('',(#161),#21,.T.);
#174=ADVANCED_FACE('',(#162),#35,.F.);
#175=ADVANCED_FACE('',(#163),#165,.T.);
#176=CLOSED_SHELL('',(#166,#167,#168,#169,#170,#171,#172,#173,#174,#175));
#177=STYLED_ITEM('',(#178),#185);
#178=PRESENTATION_STYLE_ASSIGNMENT((#179));
#179=SURFACE_STYLE_USAGE(.BOTH.,#180);
#180=SURFACE_SIDE_STYLE('',(#181));
#181=SURFACE_STYLE_FILL_AREA(#182);
#182=FILL_AREA_STYLE('',(#183));
#183=FILL_AREA_STYLE_COLOUR('',#184);
#184=COLOUR_RGB('',0.645180702209473,0.678915679454803,0.699999988079071);
#185=MANIFOLD_SOLID_BREP('',#176);
#186=SHAPE_DEFINITION_REPRESENTATION(#342,#187);
#187=SHAPE_REPRESENTATION('520005000',(#188),#337);
#188=AXIS2_PLACEMENT_3D('',#273,#215,#216);
#189=AXIS2_PLACEMENT_3D('',#274,#217,#218);
#190=AXIS2_PLACEMENT_3D('',#281,#219,#220);
#191=AXIS2_PLACEMENT_3D('',#288,#221,#222);
#192=AXIS2_PLACEMENT_3D('',#289,#223,#224);
#193=AXIS2_PLACEMENT_3D('',#290,#225,#226);
#194=AXIS2_PLACEMENT_3D('',#292,#227,#228);
#195=AXIS2_PLACEMENT_3D('',#295,#230,#231);
#196=AXIS2_PLACEMENT_3D('',#296,#232,#233);
#197=AXIS2_PLACEMENT_3D('',#298,#234,#235);
#198=AXIS2_PLACEMENT_3D('',#301,#237,#238);
#199=AXIS2_PLACEMENT_3D('',#302,#239,#240);
#200=AXIS2_PLACEMENT_3D('',#304,#241,#242);
#201=AXIS2_PLACEMENT_3D('',#307,#244,#245);
#202=AXIS2_PLACEMENT_3D('',#308,#246,#247);
#203=AXIS2_PLACEMENT_3D('',#310,#248,#249);
#204=AXIS2_PLACEMENT_3D('',#313,#251,#252);
#205=AXIS2_PLACEMENT_3D('',#314,#253,#254);
#206=AXIS2_PLACEMENT_3D('',#316,#255,#256);
#207=AXIS2_PLACEMENT_3D('',#318,#257,#258);
#208=AXIS2_PLACEMENT_3D('',#319,#259,#260);
#209=AXIS2_PLACEMENT_3D('',#320,#261,#262);
#210=AXIS2_PLACEMENT_3D('',#326,#263,#264);
#211=AXIS2_PLACEMENT_3D('',#327,#265,#266);
#212=AXIS2_PLACEMENT_3D('',#329,#267,#268);
#213=AXIS2_PLACEMENT_3D('',#330,#269,#270);
#214=AXIS2_PLACEMENT_3D('',#335,#271,#272);
#215=DIRECTION('',(0.,0.,1.));
#216=DIRECTION('',(1.,0.,0.));
#217=DIRECTION('',(0.,1.,0.));
#218=DIRECTION('',(-1.,0.,0.));
#219=DIRECTION('',(0.,1.,0.));
#220=DIRECTION('',(0.,0.,1.));
#221=DIRECTION('',(0.,-1.,0.));
#222=DIRECTION('',(0.,0.,-1.));
#223=DIRECTION('',(0.,1.,0.));
#224=DIRECTION('',(0.,0.,1.));
#225=DIRECTION('',(0.,1.,0.));
#226=DIRECTION('',(-0.693729014922062,0.,-0.720236109796826));
#227=DIRECTION('',(0.,1.,0.));
#228=DIRECTION('',(-0.693729014922062,0.,-0.720236109796826));
#229=DIRECTION('',(-4.41002858154752E-17,1.,4.24772479752248E-17));
#230=DIRECTION('',(0.,1.,0.));
#231=DIRECTION('',(0.,0.,1.));
#232=DIRECTION('',(0.,1.,0.));
#233=DIRECTION('',(-0.693729014922062,0.,-0.720236109796826));
#234=DIRECTION('',(0.,1.,0.));
#235=DIRECTION('',(-0.693729014922062,0.,-0.720236109796826));
#236=DIRECTION('',(4.41002858154752E-17,-1.,-4.24772479752248E-17));
#237=DIRECTION('',(0.,-1.,0.));
#238=DIRECTION('',(0.,0.,-1.));
#239=DIRECTION('',(0.,-1.,0.));
#240=DIRECTION('',(-0.693729014922062,0.,0.720236109796826));
#241=DIRECTION('',(0.,-1.,0.));
#242=DIRECTION('',(-0.693729014922062,0.,0.720236109796826));
#243=DIRECTION('',(-4.41002858154752E-17,1.,-4.24772479752249E-17));
#244=DIRECTION('',(0.,-1.,0.));
#245=DIRECTION('',(0.,0.,-1.));
#246=DIRECTION('',(0.,-1.,0.));
#247=DIRECTION('',(-0.693729014922062,0.,0.720236109796826));
#248=DIRECTION('',(0.,-1.,0.));
#249=DIRECTION('',(-0.693729014922062,0.,0.720236109796826));
#250=DIRECTION('',(4.41002858154752E-17,-1.,4.24772479752249E-17));
#251=DIRECTION('',(0.,-1.,0.));
#252=DIRECTION('',(0.,0.,-1.));
#253=DIRECTION('',(0.,1.,0.));
#254=DIRECTION('',(0.314511878420754,0.,0.949253537434678));
#255=DIRECTION('',(0.,-1.,0.));
#256=DIRECTION('',(0.,0.,-1.));
#257=DIRECTION('',(0.,1.,0.));
#258=DIRECTION('',(0.314511878420754,0.,0.949253537434678));
#259=DIRECTION('',(0.,1.,0.));
#260=DIRECTION('',(0.,0.,1.));
#261=DIRECTION('',(0.,1.,0.));
#262=DIRECTION('',(0.314511878420754,0.,0.949253537434678));
#263=DIRECTION('',(0.,1.,0.));
#264=DIRECTION('',(0.,0.,1.));
#265=DIRECTION('',(0.,1.,0.));
#266=DIRECTION('',(0.314511878420754,0.,0.949253537434678));
#267=DIRECTION('',(0.,1.,0.));
#268=DIRECTION('',(0.,0.,1.));
#269=DIRECTION('',(0.,1.,0.));
#270=DIRECTION('',(0.,0.,1.));
#271=DIRECTION('',(0.,-1.,0.));
#272=DIRECTION('',(1.,0.,0.));
#273=CARTESIAN_POINT('',(0.,0.,0.));
#274=CARTESIAN_POINT('',(8.75,0.,30.075));
#275=CARTESIAN_POINT('',(7.01421991431206,0.875,28.6251491476262));
#276=CARTESIAN_POINT('',(6.83631924402721,0.313695941706254,28.4993813074394));
#277=CARTESIAN_POINT('',(6.83631857546294,-0.313693832282849,28.4993808347942));
#278=CARTESIAN_POINT('',(7.01421991431206,-0.875,28.6251491476262));
#279=CARTESIAN_POINT('',(7.01421991431206,0.875,28.6251491476262));
#280=CARTESIAN_POINT('',(7.01421991431206,-0.875,28.6251491476262));
#281=CARTESIAN_POINT('',(8.75,0.875,30.075));
#282=CARTESIAN_POINT('',(6.58512489534551,0.875,30.7294583877125));
#283=CARTESIAN_POINT('',(6.58512489534551,-0.875,30.7294583877125));
#284=CARTESIAN_POINT('',(6.32162947015797,-0.340334096119579,30.5726844472911));
#285=CARTESIAN_POINT('',(6.3216022600824,0.340278883397616,30.572668257899));
#286=CARTESIAN_POINT('',(6.58512489534551,0.875,30.7294583877125));
#287=CARTESIAN_POINT('',(6.58512489534551,-0.875,30.7294583877125));
#288=CARTESIAN_POINT('',(8.75,-0.875,30.075));
#289=CARTESIAN_POINT('',(12.2096306626283,0.,21.2761555324241));
#290=CARTESIAN_POINT('',(12.2096306626283,-0.875,21.2761555324241));
#291=CARTESIAN_POINT('',(4.57861149848561,-0.875,13.353558324659));
#292=CARTESIAN_POINT('',(12.2096306626283,0.875,21.2761555324241));
#293=CARTESIAN_POINT('',(4.57861149848561,0.875,13.353558324659));
#294=CARTESIAN_POINT('',(4.57861149848561,-0.875,13.353558324659));
#295=CARTESIAN_POINT('',(12.2096306626283,0.,21.2761555324241));
#296=CARTESIAN_POINT('',(12.2096306626283,0.875,21.2761555324241));
#297=CARTESIAN_POINT('',(5.96606952832974,0.875,14.7940305442527));
#298=CARTESIAN_POINT('',(12.2096306626283,-0.875,21.2761555324241));
#299=CARTESIAN_POINT('',(5.96606952832974,-0.875,14.7940305442527));
#300=CARTESIAN_POINT('',(5.96606952832974,0.875,14.7940305442527));
#301=CARTESIAN_POINT('',(0.,0.,8.6));
#302=CARTESIAN_POINT('',(0.,-0.875,8.6));
#303=CARTESIAN_POINT('',(-4.5786114984856,-0.875,13.3535583246591));
#304=CARTESIAN_POINT('',(0.,0.875,8.6));
#305=CARTESIAN_POINT('',(-4.5786114984856,0.875,13.3535583246591));
#306=CARTESIAN_POINT('',(-4.5786114984856,-0.875,13.3535583246591));
#307=CARTESIAN_POINT('',(0.,0.,8.6));
#308=CARTESIAN_POINT('',(0.,0.875,8.6));
#309=CARTESIAN_POINT('',(-5.96606952832973,0.875,14.7940305442527));
#310=CARTESIAN_POINT('',(0.,-0.875,8.6));
#311=CARTESIAN_POINT('',(-5.96606952832973,-0.875,14.7940305442527));
#312=CARTESIAN_POINT('',(-5.96606952832973,0.875,14.7940305442527));
#313=CARTESIAN_POINT('',(-9.37902375684151,-0.875,29.8194373693362));
#314=CARTESIAN_POINT('',(-12.2096306626283,-0.875,21.2761555324241));
#315=CARTESIAN_POINT('',(-6.58512489534551,-0.875,30.7294583877125));
#316=CARTESIAN_POINT('',(-8.75,-0.875,30.075));
#317=CARTESIAN_POINT('',(-7.01421991431206,-0.875,28.6251491476262));
#318=CARTESIAN_POINT('',(-12.2096306626283,-0.875,21.2761555324241));
#319=CARTESIAN_POINT('',(-12.2096306626283,0.,21.2761555324241));
#320=CARTESIAN_POINT('',(-12.2096306626283,0.875,21.2761555324241));
#321=CARTESIAN_POINT('',(-6.58512489534551,0.875,30.7294583877125));
#322=CARTESIAN_POINT('',(-6.58512489534551,0.875,30.7294583877125));
#323=CARTESIAN_POINT('',(-6.32162947015797,0.340334096119579,30.5726844472911));
#324=CARTESIAN_POINT('',(-6.3216022600824,-0.340278883397617,30.572668257899));
#325=CARTESIAN_POINT('',(-6.58512489534551,-0.875000000000002,30.7294583877125));
#326=CARTESIAN_POINT('',(-8.75,0.875,31.7179444442056));
#327=CARTESIAN_POINT('',(-12.2096306626283,0.875,21.2761555324241));
#328=CARTESIAN_POINT('',(-7.01421991431206,0.875,28.6251491476262));
#329=CARTESIAN_POINT('',(-8.75,0.875,30.075));
#330=CARTESIAN_POINT('',(-12.2096306626283,0.,21.2761555324241));
#331=CARTESIAN_POINT('',(-7.01421991431206,-0.875,28.6251491476262));
#332=CARTESIAN_POINT('',(-6.83631924402721,-0.313695941706247,28.4993813074394));
#333=CARTESIAN_POINT('',(-6.83631857546294,0.313693832282848,28.4993808347942));
#334=CARTESIAN_POINT('',(-7.01421991431206,0.875,28.6251491476262));
#335=CARTESIAN_POINT('',(-8.75,0.,30.075));
#336=MECHANICAL_DESIGN_GEOMETRIC_PRESENTATION_REPRESENTATION('',(#177),
#337);
#337=(
GEOMETRIC_REPRESENTATION_CONTEXT(3)
GLOBAL_UNCERTAINTY_ASSIGNED_CONTEXT((#338))
GLOBAL_UNIT_ASSIGNED_CONTEXT((#341,#340,#339))
REPRESENTATION_CONTEXT('520005000','TOP_LEVEL_ASSEMBLY_PART')
);
#338=UNCERTAINTY_MEASURE_WITH_UNIT(LENGTH_MEASURE(0.005),#341,
'DISTANCE_ACCURACY_VALUE','Maximum Tolerance applied to model');
#339=(
NAMED_UNIT(*)
SI_UNIT($,.STERADIAN.)
SOLID_ANGLE_UNIT()
);
#340=(
NAMED_UNIT(*)
PLANE_ANGLE_UNIT()
SI_UNIT($,.RADIAN.)
);
#341=(
LENGTH_UNIT()
NAMED_UNIT(*)
SI_UNIT(.MILLI.,.METRE.)
);
#342=PRODUCT_DEFINITION_SHAPE('','',#343);
#343=PRODUCT_DEFINITION('','',#345,#344);
#344=PRODUCT_DEFINITION_CONTEXT('',#351,'design');
#345=PRODUCT_DEFINITION_FORMATION_WITH_SPECIFIED_SOURCE('','',#347,
 .NOT_KNOWN.);
#346=PRODUCT_RELATED_PRODUCT_CATEGORY('','',(#347));
#347=PRODUCT('520005000','520005000','520005000',(#349));
#348=PRODUCT_CATEGORY('','');
#349=PRODUCT_CONTEXT('',#351,'mechanical');
#350=APPLICATION_PROTOCOL_DEFINITION('international standard',
'automotive_design',2010,#351);
#351=APPLICATION_CONTEXT(
'core data for automotive mechanical design processes');
ENDSEC;
END-ISO-10303-21;
