ISO-10303-21;
HEADER;
/* Generated by software containing ST-Developer
 * from STEP Tools, Inc. (www.steptools.com) 
 */
/* OPTION: strings as raw bytes, not using required /X/ escapes */

FILE_DESCRIPTION(
/* description */ ('Unknown'),
/* implementation_level */ '2;1');

FILE_NAME(
/* name */ '500916000',
/* time_stamp */ '2019-01-04T13:36:17+01:00',
/* author */ ('Unknown'),
/* organization */ ('Unknown'),
/* preprocessor_version */ 'ST-DEVELOPER v16.7',
/* originating_system */ 'DEX',
/* authorisation */ $);

FILE_SCHEMA (('AUTOMOTIVE_DESIGN {1 0 10303 214 3 1 1}'));
ENDSEC;

DATA;
#10=PROPERTY_DEFINITION_REPRESENTATION(#14,#12);
#11=PROPERTY_DEFINITION_REPRESENTATION(#15,#13);
#12=REPRESENTATION('',(#16),#463);
#13=REPRESENTATION('',(#17),#463);
#14=PROPERTY_DEFINITION('pmi validation property','',#468);
#15=PROPERTY_DEFINITION('pmi validation property','',#468);
#16=VALUE_REPRESENTATION_ITEM('number of annotations',COUNT_MEASURE(0.));
#17=VALUE_REPRESENTATION_ITEM('number of views',COUNT_MEASURE(0.));
#18=SHAPE_REPRESENTATION_RELATIONSHIP('','',#277,#19);
#19=ADVANCED_BREP_SHAPE_REPRESENTATION('',(#275),#463);
#20=CYLINDRICAL_SURFACE('',#291,5.75);
#21=CYLINDRICAL_SURFACE('',#294,1.00001220703159);
#22=CYLINDRICAL_SURFACE('',#297,1.22070315852069E-5);
#23=CYLINDRICAL_SURFACE('',#300,6.75);
#24=CYLINDRICAL_SURFACE('',#305,2.45);
#25=CYLINDRICAL_SURFACE('',#306,2.45);
#26=CYLINDRICAL_SURFACE('',#307,6.25);
#27=CYLINDRICAL_SURFACE('',#308,6.25);
#28=CIRCLE('',#280,6.25);
#29=CIRCLE('',#281,2.45);
#30=CIRCLE('',#283,6.25);
#31=CIRCLE('',#284,2.45);
#32=CIRCLE('',#286,6.25);
#33=CIRCLE('',#287,2.45);
#34=CIRCLE('',#289,6.25);
#35=CIRCLE('',#290,2.45);
#36=CIRCLE('',#292,5.75);
#37=CIRCLE('',#293,5.75);
#38=CIRCLE('',#295,1.00001220703159);
#39=CIRCLE('',#296,1.00001220703159);
#40=CIRCLE('',#298,1.22070315852069E-5);
#41=CIRCLE('',#299,1.22070315852069E-5);
#42=CIRCLE('',#301,6.75);
#43=CIRCLE('',#302,6.75);
#44=ORIENTED_EDGE('',*,*,#112,.F.);
#45=ORIENTED_EDGE('',*,*,#113,.T.);
#46=ORIENTED_EDGE('',*,*,#114,.T.);
#47=ORIENTED_EDGE('',*,*,#115,.T.);
#48=ORIENTED_EDGE('',*,*,#116,.T.);
#49=ORIENTED_EDGE('',*,*,#117,.T.);
#50=ORIENTED_EDGE('',*,*,#118,.F.);
#51=ORIENTED_EDGE('',*,*,#119,.F.);
#52=ORIENTED_EDGE('',*,*,#120,.T.);
#53=ORIENTED_EDGE('',*,*,#121,.T.);
#54=ORIENTED_EDGE('',*,*,#122,.F.);
#55=ORIENTED_EDGE('',*,*,#123,.T.);
#56=ORIENTED_EDGE('',*,*,#124,.T.);
#57=ORIENTED_EDGE('',*,*,#125,.T.);
#58=ORIENTED_EDGE('',*,*,#126,.T.);
#59=ORIENTED_EDGE('',*,*,#127,.T.);
#60=ORIENTED_EDGE('',*,*,#128,.F.);
#61=ORIENTED_EDGE('',*,*,#129,.F.);
#62=ORIENTED_EDGE('',*,*,#130,.T.);
#63=ORIENTED_EDGE('',*,*,#131,.T.);
#64=ORIENTED_EDGE('',*,*,#132,.F.);
#65=ORIENTED_EDGE('',*,*,#115,.F.);
#66=ORIENTED_EDGE('',*,*,#133,.T.);
#67=ORIENTED_EDGE('',*,*,#134,.T.);
#68=ORIENTED_EDGE('',*,*,#135,.F.);
#69=ORIENTED_EDGE('',*,*,#134,.F.);
#70=ORIENTED_EDGE('',*,*,#136,.T.);
#71=ORIENTED_EDGE('',*,*,#119,.T.);
#72=ORIENTED_EDGE('',*,*,#137,.F.);
#73=ORIENTED_EDGE('',*,*,#125,.F.);
#74=ORIENTED_EDGE('',*,*,#138,.T.);
#75=ORIENTED_EDGE('',*,*,#139,.T.);
#76=ORIENTED_EDGE('',*,*,#140,.F.);
#77=ORIENTED_EDGE('',*,*,#139,.F.);
#78=ORIENTED_EDGE('',*,*,#141,.T.);
#79=ORIENTED_EDGE('',*,*,#129,.T.);
#80=ORIENTED_EDGE('',*,*,#114,.F.);
#81=ORIENTED_EDGE('',*,*,#142,.T.);
#82=ORIENTED_EDGE('',*,*,#130,.F.);
#83=ORIENTED_EDGE('',*,*,#141,.F.);
#84=ORIENTED_EDGE('',*,*,#138,.F.);
#85=ORIENTED_EDGE('',*,*,#124,.F.);
#86=ORIENTED_EDGE('',*,*,#143,.T.);
#87=ORIENTED_EDGE('',*,*,#120,.F.);
#88=ORIENTED_EDGE('',*,*,#136,.F.);
#89=ORIENTED_EDGE('',*,*,#133,.F.);
#90=ORIENTED_EDGE('',*,*,#118,.T.);
#91=ORIENTED_EDGE('',*,*,#144,.T.);
#92=ORIENTED_EDGE('',*,*,#122,.T.);
#93=ORIENTED_EDGE('',*,*,#137,.T.);
#94=ORIENTED_EDGE('',*,*,#140,.T.);
#95=ORIENTED_EDGE('',*,*,#128,.T.);
#96=ORIENTED_EDGE('',*,*,#145,.T.);
#97=ORIENTED_EDGE('',*,*,#112,.T.);
#98=ORIENTED_EDGE('',*,*,#132,.T.);
#99=ORIENTED_EDGE('',*,*,#135,.T.);
#100=ORIENTED_EDGE('',*,*,#131,.F.);
#101=ORIENTED_EDGE('',*,*,#116,.F.);
#102=ORIENTED_EDGE('',*,*,#126,.F.);
#103=ORIENTED_EDGE('',*,*,#121,.F.);
#104=ORIENTED_EDGE('',*,*,#117,.F.);
#105=ORIENTED_EDGE('',*,*,#143,.F.);
#106=ORIENTED_EDGE('',*,*,#123,.F.);
#107=ORIENTED_EDGE('',*,*,#144,.F.);
#108=ORIENTED_EDGE('',*,*,#127,.F.);
#109=ORIENTED_EDGE('',*,*,#142,.F.);
#110=ORIENTED_EDGE('',*,*,#113,.F.);
#111=ORIENTED_EDGE('',*,*,#145,.F.);
#112=EDGE_CURVE('',#146,#147,#170,.T.);
#113=EDGE_CURVE('',#146,#148,#28,.T.);
#114=EDGE_CURVE('',#148,#149,#171,.T.);
#115=EDGE_CURVE('',#149,#147,#172,.T.);
#116=EDGE_CURVE('',#150,#150,#29,.F.);
#117=EDGE_CURVE('',#151,#152,#30,.T.);
#118=EDGE_CURVE('',#153,#152,#173,.T.);
#119=EDGE_CURVE('',#154,#153,#174,.T.);
#120=EDGE_CURVE('',#154,#151,#175,.T.);
#121=EDGE_CURVE('',#155,#155,#31,.F.);
#122=EDGE_CURVE('',#156,#157,#176,.T.);
#123=EDGE_CURVE('',#156,#158,#32,.T.);
#124=EDGE_CURVE('',#158,#159,#177,.T.);
#125=EDGE_CURVE('',#159,#157,#178,.T.);
#126=EDGE_CURVE('',#160,#160,#33,.T.);
#127=EDGE_CURVE('',#161,#162,#34,.T.);
#128=EDGE_CURVE('',#163,#162,#179,.T.);
#129=EDGE_CURVE('',#164,#163,#180,.T.);
#130=EDGE_CURVE('',#164,#161,#181,.T.);
#131=EDGE_CURVE('',#165,#165,#35,.F.);
#132=EDGE_CURVE('',#147,#166,#36,.T.);
#133=EDGE_CURVE('',#149,#167,#37,.T.);
#134=EDGE_CURVE('',#167,#166,#182,.T.);
#135=EDGE_CURVE('',#166,#153,#38,.T.);
#136=EDGE_CURVE('',#167,#154,#39,.T.);
#137=EDGE_CURVE('',#157,#168,#40,.T.);
#138=EDGE_CURVE('',#159,#169,#41,.T.);
#139=EDGE_CURVE('',#169,#168,#183,.T.);
#140=EDGE_CURVE('',#168,#163,#42,.T.);
#141=EDGE_CURVE('',#169,#164,#43,.T.);
#142=EDGE_CURVE('',#148,#161,#184,.F.);
#143=EDGE_CURVE('',#158,#151,#185,.F.);
#144=EDGE_CURVE('',#152,#156,#186,.T.);
#145=EDGE_CURVE('',#162,#146,#187,.T.);
#146=VERTEX_POINT('',#392);
#147=VERTEX_POINT('',#393);
#148=VERTEX_POINT('',#395);
#149=VERTEX_POINT('',#397);
#150=VERTEX_POINT('',#400);
#151=VERTEX_POINT('',#403);
#152=VERTEX_POINT('',#404);
#153=VERTEX_POINT('',#406);
#154=VERTEX_POINT('',#408);
#155=VERTEX_POINT('',#411);
#156=VERTEX_POINT('',#414);
#157=VERTEX_POINT('',#415);
#158=VERTEX_POINT('',#417);
#159=VERTEX_POINT('',#419);
#160=VERTEX_POINT('',#422);
#161=VERTEX_POINT('',#425);
#162=VERTEX_POINT('',#426);
#163=VERTEX_POINT('',#428);
#164=VERTEX_POINT('',#430);
#165=VERTEX_POINT('',#433);
#166=VERTEX_POINT('',#436);
#167=VERTEX_POINT('',#438);
#168=VERTEX_POINT('',#445);
#169=VERTEX_POINT('',#447);
#170=LINE('',#391,#188);
#171=LINE('',#396,#189);
#172=LINE('',#398,#190);
#173=LINE('',#405,#191);
#174=LINE('',#407,#192);
#175=LINE('',#409,#193);
#176=LINE('',#413,#194);
#177=LINE('',#418,#195);
#178=LINE('',#420,#196);
#179=LINE('',#427,#197);
#180=LINE('',#429,#198);
#181=LINE('',#431,#199);
#182=LINE('',#439,#200);
#183=LINE('',#448,#201);
#184=LINE('',#453,#202);
#185=LINE('',#454,#203);
#186=LINE('',#456,#204);
#187=LINE('',#457,#205);
#188=VECTOR('',#313,1000.);
#189=VECTOR('',#316,1000.);
#190=VECTOR('',#317,1000.);
#191=VECTOR('',#324,1000.);
#192=VECTOR('',#325,1000.);
#193=VECTOR('',#326,1000.);
#194=VECTOR('',#331,1000.);
#195=VECTOR('',#334,1000.);
#196=VECTOR('',#335,1000.);
#197=VECTOR('',#342,1000.);
#198=VECTOR('',#343,1000.);
#199=VECTOR('',#344,1000.);
#200=VECTOR('',#353,1000.);
#201=VECTOR('',#366,1000.);
#202=VECTOR('',#375,1000.);
#203=VECTOR('',#376,1000.);
#204=VECTOR('',#379,1000.);
#205=VECTOR('',#380,1000.);
#206=EDGE_LOOP('',(#44,#45,#46,#47));
#207=EDGE_LOOP('',(#48));
#208=EDGE_LOOP('',(#49,#50,#51,#52));
#209=EDGE_LOOP('',(#53));
#210=EDGE_LOOP('',(#54,#55,#56,#57));
#211=EDGE_LOOP('',(#58));
#212=EDGE_LOOP('',(#59,#60,#61,#62));
#213=EDGE_LOOP('',(#63));
#214=EDGE_LOOP('',(#64,#65,#66,#67));
#215=EDGE_LOOP('',(#68,#69,#70,#71));
#216=EDGE_LOOP('',(#72,#73,#74,#75));
#217=EDGE_LOOP('',(#76,#77,#78,#79));
#218=EDGE_LOOP('',(#80,#81,#82,#83,#84,#85,#86,#87,#88,#89));
#219=EDGE_LOOP('',(#90,#91,#92,#93,#94,#95,#96,#97,#98,#99));
#220=EDGE_LOOP('',(#100));
#221=EDGE_LOOP('',(#101));
#222=EDGE_LOOP('',(#102));
#223=EDGE_LOOP('',(#103));
#224=EDGE_LOOP('',(#104,#105,#106,#107));
#225=EDGE_LOOP('',(#108,#109,#110,#111));
#226=FACE_BOUND('',#206,.T.);
#227=FACE_BOUND('',#207,.T.);
#228=FACE_BOUND('',#208,.T.);
#229=FACE_BOUND('',#209,.T.);
#230=FACE_BOUND('',#210,.T.);
#231=FACE_BOUND('',#211,.T.);
#232=FACE_BOUND('',#212,.T.);
#233=FACE_BOUND('',#213,.T.);
#234=FACE_BOUND('',#214,.T.);
#235=FACE_BOUND('',#215,.T.);
#236=FACE_BOUND('',#216,.T.);
#237=FACE_BOUND('',#217,.T.);
#238=FACE_BOUND('',#218,.T.);
#239=FACE_BOUND('',#219,.T.);
#240=FACE_BOUND('',#220,.T.);
#241=FACE_BOUND('',#221,.T.);
#242=FACE_BOUND('',#222,.T.);
#243=FACE_BOUND('',#223,.T.);
#244=FACE_BOUND('',#224,.T.);
#245=FACE_BOUND('',#225,.T.);
#246=PLANE('',#279);
#247=PLANE('',#282);
#248=PLANE('',#285);
#249=PLANE('',#288);
#250=PLANE('',#303);
#251=PLANE('',#304);
#252=ADVANCED_FACE('',(#226,#227),#246,.T.);
#253=ADVANCED_FACE('',(#228,#229),#247,.T.);
#254=ADVANCED_FACE('',(#230,#231),#248,.T.);
#255=ADVANCED_FACE('',(#232,#233),#249,.T.);
#256=ADVANCED_FACE('',(#234),#20,.F.);
#257=ADVANCED_FACE('',(#235),#21,.T.);
#258=ADVANCED_FACE('',(#236),#22,.F.);
#259=ADVANCED_FACE('',(#237),#23,.T.);
#260=ADVANCED_FACE('',(#238),#250,.T.);
#261=ADVANCED_FACE('',(#239),#251,.F.);
#262=ADVANCED_FACE('',(#240,#241),#24,.F.);
#263=ADVANCED_FACE('',(#242,#243),#25,.F.);
#264=ADVANCED_FACE('',(#244),#26,.T.);
#265=ADVANCED_FACE('',(#245),#27,.T.);
#266=CLOSED_SHELL('',(#252,#253,#254,#255,#256,#257,#258,#259,#260,#261,
#262,#263,#264,#265));
#267=STYLED_ITEM('',(#268),#275);
#268=PRESENTATION_STYLE_ASSIGNMENT((#269));
#269=SURFACE_STYLE_USAGE(.BOTH.,#270);
#270=SURFACE_SIDE_STYLE('',(#271));
#271=SURFACE_STYLE_FILL_AREA(#272);
#272=FILL_AREA_STYLE('',(#273));
#273=FILL_AREA_STYLE_COLOUR('',#274);
#274=COLOUR_RGB('',0.645180702209473,0.678915679454803,0.699999988079071);
#275=MANIFOLD_SOLID_BREP('',#266);
#276=SHAPE_DEFINITION_REPRESENTATION(#468,#277);
#277=SHAPE_REPRESENTATION('500916000',(#278),#463);
#278=AXIS2_PLACEMENT_3D('',#389,#309,#310);
#279=AXIS2_PLACEMENT_3D('',#390,#311,#312);
#280=AXIS2_PLACEMENT_3D('',#394,#314,#315);
#281=AXIS2_PLACEMENT_3D('',#399,#318,#319);
#282=AXIS2_PLACEMENT_3D('',#401,#320,#321);
#283=AXIS2_PLACEMENT_3D('',#402,#322,#323);
#284=AXIS2_PLACEMENT_3D('',#410,#327,#328);
#285=AXIS2_PLACEMENT_3D('',#412,#329,#330);
#286=AXIS2_PLACEMENT_3D('',#416,#332,#333);
#287=AXIS2_PLACEMENT_3D('',#421,#336,#337);
#288=AXIS2_PLACEMENT_3D('',#423,#338,#339);
#289=AXIS2_PLACEMENT_3D('',#424,#340,#341);
#290=AXIS2_PLACEMENT_3D('',#432,#345,#346);
#291=AXIS2_PLACEMENT_3D('',#434,#347,#348);
#292=AXIS2_PLACEMENT_3D('',#435,#349,#350);
#293=AXIS2_PLACEMENT_3D('',#437,#351,#352);
#294=AXIS2_PLACEMENT_3D('',#440,#354,#355);
#295=AXIS2_PLACEMENT_3D('',#441,#356,#357);
#296=AXIS2_PLACEMENT_3D('',#442,#358,#359);
#297=AXIS2_PLACEMENT_3D('',#443,#360,#361);
#298=AXIS2_PLACEMENT_3D('',#444,#362,#363);
#299=AXIS2_PLACEMENT_3D('',#446,#364,#365);
#300=AXIS2_PLACEMENT_3D('',#449,#367,#368);
#301=AXIS2_PLACEMENT_3D('',#450,#369,#370);
#302=AXIS2_PLACEMENT_3D('',#451,#371,#372);
#303=AXIS2_PLACEMENT_3D('',#452,#373,#374);
#304=AXIS2_PLACEMENT_3D('',#455,#377,#378);
#305=AXIS2_PLACEMENT_3D('',#458,#381,#382);
#306=AXIS2_PLACEMENT_3D('',#459,#383,#384);
#307=AXIS2_PLACEMENT_3D('',#460,#385,#386);
#308=AXIS2_PLACEMENT_3D('',#461,#387,#388);
#309=DIRECTION('',(0.,0.,1.));
#310=DIRECTION('',(1.,0.,0.));
#311=DIRECTION('',(1.84938536884521E-17,0.,1.));
#312=DIRECTION('',(1.,0.,-1.84938536884521E-17));
#313=DIRECTION('',(1.,0.,-1.84938536884521E-17));
#314=DIRECTION('',(1.84938536884521E-17,0.,1.));
#315=DIRECTION('',(1.,0.,-1.84938536884521E-17));
#316=DIRECTION('',(1.,0.,-1.84938536884521E-17));
#317=DIRECTION('',(0.,1.,0.));
#318=DIRECTION('',(1.84938536884521E-17,0.,1.));
#319=DIRECTION('',(1.,0.,-1.84938536884521E-17));
#320=DIRECTION('',(1.25445947002695E-16,0.,-1.));
#321=DIRECTION('',(-1.,0.,-1.25445947002695E-16));
#322=DIRECTION('',(1.25445947002695E-16,0.,-1.));
#323=DIRECTION('',(-1.,0.,-1.25445947002695E-16));
#324=DIRECTION('',(-1.,0.,-1.25445947002695E-16));
#325=DIRECTION('',(0.,1.,0.));
#326=DIRECTION('',(-1.,0.,-1.25445947002695E-16));
#327=DIRECTION('',(1.25445947002695E-16,0.,-1.));
#328=DIRECTION('',(-1.,0.,-1.25445947002695E-16));
#329=DIRECTION('',(-1.00356757602156E-16,0.,1.));
#330=DIRECTION('',(1.,0.,1.00356757602156E-16));
#331=DIRECTION('',(1.,0.,1.00356757602156E-16));
#332=DIRECTION('',(-1.00356757602156E-16,0.,1.));
#333=DIRECTION('',(1.,0.,1.00356757602156E-16));
#334=DIRECTION('',(1.,0.,1.00356757602156E-16));
#335=DIRECTION('',(0.,1.,0.));
#336=DIRECTION('',(1.00356757602156E-16,0.,-1.));
#337=DIRECTION('',(1.,0.,1.00356757602156E-16));
#338=DIRECTION('',(-3.04720868719384E-23,0.,-1.));
#339=DIRECTION('',(-1.,0.,3.04720868719384E-23));
#340=DIRECTION('',(-3.04720868719384E-23,0.,-1.));
#341=DIRECTION('',(-1.,0.,3.04720868719384E-23));
#342=DIRECTION('',(-1.,0.,3.04720868719384E-23));
#343=DIRECTION('',(0.,1.,0.));
#344=DIRECTION('',(-1.,0.,3.04720868719384E-23));
#345=DIRECTION('',(-3.04720868719384E-23,0.,-1.));
#346=DIRECTION('',(-1.,0.,3.04720868719384E-23));
#347=DIRECTION('',(0.,1.,0.));
#348=DIRECTION('',(0.,0.,1.));
#349=DIRECTION('',(0.,-1.,0.));
#350=DIRECTION('',(0.,0.,-1.));
#351=DIRECTION('',(0.,-1.,0.));
#352=DIRECTION('',(0.,0.,-1.));
#353=DIRECTION('',(0.,1.,0.));
#354=DIRECTION('',(0.,1.,0.));
#355=DIRECTION('',(0.,0.,1.));
#356=DIRECTION('',(0.,1.,0.));
#357=DIRECTION('',(-1.,0.,0.));
#358=DIRECTION('',(0.,1.,0.));
#359=DIRECTION('',(-1.,0.,0.));
#360=DIRECTION('',(0.,1.,0.));
#361=DIRECTION('',(0.,0.,1.));
#362=DIRECTION('',(0.,-1.,0.));
#363=DIRECTION('',(-1.,0.,0.));
#364=DIRECTION('',(0.,-1.,0.));
#365=DIRECTION('',(-1.,0.,0.));
#366=DIRECTION('',(0.,1.,0.));
#367=DIRECTION('',(0.,1.,0.));
#368=DIRECTION('',(0.,0.,1.));
#369=DIRECTION('',(0.,1.,0.));
#370=DIRECTION('',(-1.,0.,0.));
#371=DIRECTION('',(0.,1.,0.));
#372=DIRECTION('',(-1.,0.,0.));
#373=DIRECTION('',(0.,-1.,0.));
#374=DIRECTION('',(0.,0.,-1.));
#375=DIRECTION('',(0.,0.,1.));
#376=DIRECTION('',(0.,0.,1.));
#377=DIRECTION('',(0.,-1.,0.));
#378=DIRECTION('',(0.,0.,-1.));
#379=DIRECTION('',(0.,0.,1.));
#380=DIRECTION('',(0.,0.,1.));
#381=DIRECTION('',(-1.00356757602156E-16,0.,1.));
#382=DIRECTION('',(1.,0.,1.00356757602156E-16));
#383=DIRECTION('',(-1.00356757602156E-16,0.,1.));
#384=DIRECTION('',(1.,0.,1.00356757602156E-16));
#385=DIRECTION('',(0.,0.,1.));
#386=DIRECTION('',(1.,0.,0.));
#387=DIRECTION('',(0.,0.,1.));
#388=DIRECTION('',(1.,0.,0.));
#389=CARTESIAN_POINT('',(0.,0.,0.));
#390=CARTESIAN_POINT('',(-23.45,-6.25,1.));
#391=CARTESIAN_POINT('',(-23.45,6.25,1.));
#392=CARTESIAN_POINT('',(-17.2,6.25,1.));
#393=CARTESIAN_POINT('',(0.,6.25,1.));
#394=CARTESIAN_POINT('',(-17.2,0.,1.));
#395=CARTESIAN_POINT('',(-17.2,-6.25,1.));
#396=CARTESIAN_POINT('',(-23.45,-6.25,1.));
#397=CARTESIAN_POINT('',(0.,-6.25,1.));
#398=CARTESIAN_POINT('',(0.,-6.25,1.));
#399=CARTESIAN_POINT('',(-14.8,0.,1.));
#400=CARTESIAN_POINT('',(-12.35,0.,1.));
#401=CARTESIAN_POINT('',(-6.16443281523938,-6.25,3.));
#402=CARTESIAN_POINT('',(-17.2,0.,3.));
#403=CARTESIAN_POINT('',(-17.2,-6.25,3.));
#404=CARTESIAN_POINT('',(-17.2,6.25,3.));
#405=CARTESIAN_POINT('',(-6.16443281523938,6.25,3.));
#406=CARTESIAN_POINT('',(-6.16443281523938,6.25,3.));
#407=CARTESIAN_POINT('',(-6.16443281523938,-6.25,3.));
#408=CARTESIAN_POINT('',(-6.16443281523938,-6.25,3.));
#409=CARTESIAN_POINT('',(-6.16443281523938,-6.25,3.));
#410=CARTESIAN_POINT('',(-14.8,0.,3.));
#411=CARTESIAN_POINT('',(-17.25,0.,3.));
#412=CARTESIAN_POINT('',(-6.16443281523938,-6.25,4.));
#413=CARTESIAN_POINT('',(-6.16443281523938,6.25,4.));
#414=CARTESIAN_POINT('',(-17.2,6.25,4.));
#415=CARTESIAN_POINT('',(-6.16443281523938,6.25,4.));
#416=CARTESIAN_POINT('',(-17.2,0.,4.));
#417=CARTESIAN_POINT('',(-17.2,-6.25,4.));
#418=CARTESIAN_POINT('',(-6.16443281523938,-6.25,4.));
#419=CARTESIAN_POINT('',(-6.16443281523938,-6.25,4.));
#420=CARTESIAN_POINT('',(-6.16443281523938,-6.25,4.));
#421=CARTESIAN_POINT('',(-14.8,0.,4.));
#422=CARTESIAN_POINT('',(-12.35,0.,4.));
#423=CARTESIAN_POINT('',(-23.45,-6.25,7.14570437146956E-22));
#424=CARTESIAN_POINT('',(-17.2,0.,0.));
#425=CARTESIAN_POINT('',(-17.2,-6.25,5.24119894197341E-22));
#426=CARTESIAN_POINT('',(-17.2,6.25,5.24119894197341E-22));
#427=CARTESIAN_POINT('',(-23.45,6.25,7.14570437146956E-22));
#428=CARTESIAN_POINT('',(1.23995488413696E-15,6.25,0.));
#429=CARTESIAN_POINT('',(1.23995488413696E-15,-6.25,0.));
#430=CARTESIAN_POINT('',(1.23995488413696E-15,-6.25,0.));
#431=CARTESIAN_POINT('',(-23.45,-6.25,7.14570437146956E-22));
#432=CARTESIAN_POINT('',(-14.8,0.,0.));
#433=CARTESIAN_POINT('',(-17.25,0.,7.46566128362492E-23));
#434=CARTESIAN_POINT('',(2.6860446961901E-28,-6.25,6.75));
#435=CARTESIAN_POINT('',(2.6860446961901E-28,6.25,6.75));
#436=CARTESIAN_POINT('',(-5.25117401279695,6.25,4.40742204242293));
#437=CARTESIAN_POINT('',(2.6860446961901E-28,-6.25,6.75));
#438=CARTESIAN_POINT('',(-5.25117401279695,-6.25,4.40742204242293));
#439=CARTESIAN_POINT('',(-5.25117401279695,-6.25,4.40742204242293));
#440=CARTESIAN_POINT('',(-6.16443281523938,-6.25,4.00001220703159));
#441=CARTESIAN_POINT('',(-6.16443281523938,6.25,4.00001220703159));
#442=CARTESIAN_POINT('',(-6.16443281523938,-6.25,4.00001220703159));
#443=CARTESIAN_POINT('',(-6.16443281523938,-6.25,4.00001220703159));
#444=CARTESIAN_POINT('',(-6.16443281523938,6.25,4.00001220703159));
#445=CARTESIAN_POINT('',(-6.1644206082078,6.25,4.00001220703159));
#446=CARTESIAN_POINT('',(-6.16443281523938,-6.25,4.00001220703159));
#447=CARTESIAN_POINT('',(-6.1644206082078,-6.25,4.00001220703159));
#448=CARTESIAN_POINT('',(-6.1644206082078,-6.25,4.00001220703159));
#449=CARTESIAN_POINT('',(2.6860446961901E-28,-6.25,6.75));
#450=CARTESIAN_POINT('',(2.6860446961901E-28,6.25,6.75));
#451=CARTESIAN_POINT('',(2.6860446961901E-28,-6.25,6.75));
#452=CARTESIAN_POINT('',(2.6860446961901E-28,-6.25,6.75));
#453=CARTESIAN_POINT('',(-17.2,-6.25,6.75));
#454=CARTESIAN_POINT('',(-17.2,-6.25,6.75));
#455=CARTESIAN_POINT('',(2.6860446961901E-28,6.25,6.75));
#456=CARTESIAN_POINT('',(-17.2,6.25,4.));
#457=CARTESIAN_POINT('',(-17.2,6.25,1.));
#458=CARTESIAN_POINT('',(-14.8,0.,-31.3629749879729));
#459=CARTESIAN_POINT('',(-14.8,0.,-31.3629749879729));
#460=CARTESIAN_POINT('',(-17.2,0.,4.));
#461=CARTESIAN_POINT('',(-17.2,0.,1.));
#462=MECHANICAL_DESIGN_GEOMETRIC_PRESENTATION_REPRESENTATION('',(#267),
#463);
#463=(
GEOMETRIC_REPRESENTATION_CONTEXT(3)
GLOBAL_UNCERTAINTY_ASSIGNED_CONTEXT((#464))
GLOBAL_UNIT_ASSIGNED_CONTEXT((#467,#466,#465))
REPRESENTATION_CONTEXT('500916000','TOP_LEVEL_ASSEMBLY_PART')
);
#464=UNCERTAINTY_MEASURE_WITH_UNIT(LENGTH_MEASURE(0.005),#467,
'DISTANCE_ACCURACY_VALUE','Maximum Tolerance applied to model');
#465=(
NAMED_UNIT(*)
SI_UNIT($,.STERADIAN.)
SOLID_ANGLE_UNIT()
);
#466=(
NAMED_UNIT(*)
PLANE_ANGLE_UNIT()
SI_UNIT($,.RADIAN.)
);
#467=(
LENGTH_UNIT()
NAMED_UNIT(*)
SI_UNIT(.MILLI.,.METRE.)
);
#468=PRODUCT_DEFINITION_SHAPE('','',#469);
#469=PRODUCT_DEFINITION('','',#471,#470);
#470=PRODUCT_DEFINITION_CONTEXT('',#477,'design');
#471=PRODUCT_DEFINITION_FORMATION_WITH_SPECIFIED_SOURCE('','',#473,
 .NOT_KNOWN.);
#472=PRODUCT_RELATED_PRODUCT_CATEGORY('','',(#473));
#473=PRODUCT('500916000','500916000','500916000',(#475));
#474=PRODUCT_CATEGORY('','');
#475=PRODUCT_CONTEXT('',#477,'mechanical');
#476=APPLICATION_PROTOCOL_DEFINITION('international standard',
'automotive_design',2010,#477);
#477=APPLICATION_CONTEXT(
'core data for automotive mechanical design processes');
ENDSEC;
END-ISO-10303-21;
