ISO-10303-21;
HEADER;
/* Generated by software containing ST-Developer
 * from STEP Tools, Inc. (www.steptools.com) 
 */
/* OPTION: strings as raw bytes, not using required /X/ escapes */

FILE_DESCRIPTION(
/* description */ ('Unknown'),
/* implementation_level */ '2;1');

FILE_NAME(
/* name */ '500915000',
/* time_stamp */ '2019-01-04T14:05:54+01:00',
/* author */ ('Unknown'),
/* organization */ ('Unknown'),
/* preprocessor_version */ 'ST-DEVELOPER v16.7',
/* originating_system */ 'DEX',
/* authorisation */ $);

FILE_SCHEMA (('AUTOMOTIVE_DESIGN {1 0 10303 214 3 1 1}'));
ENDSEC;

DATA;
#10=PROPERTY_DEFINITION_REPRESENTATION(#14,#12);
#11=PROPERTY_DEFINITION_REPRESENTATION(#15,#13);
#12=REPRESENTATION('',(#16),#563);
#13=REPRESENTATION('',(#17),#563);
#14=PROPERTY_DEFINITION('pmi validation property','',#568);
#15=PROPERTY_DEFINITION('pmi validation property','',#568);
#16=VALUE_REPRESENTATION_ITEM('number of annotations',COUNT_MEASURE(0.));
#17=VALUE_REPRESENTATION_ITEM('number of views',COUNT_MEASURE(0.));
#18=SHAPE_REPRESENTATION_RELATIONSHIP('','',#321,#19);
#19=ADVANCED_BREP_SHAPE_REPRESENTATION('',(#319),#563);
#20=DEGENERATE_TOROIDAL_SURFACE('',#354,1.22070315852069E-5,1.,.T.);
#21=DEGENERATE_TOROIDAL_SURFACE('',#368,1.22070315852069E-5,1.,.T.);
#22=TOROIDAL_SURFACE('',#349,5.5,1.);
#23=TOROIDAL_SURFACE('',#356,3.75,1.);
#24=TOROIDAL_SURFACE('',#362,3.75,1.);
#25=TOROIDAL_SURFACE('',#364,5.5,1.);
#26=CYLINDRICAL_SURFACE('',#335,4.5);
#27=CYLINDRICAL_SURFACE('',#338,1.00001220703159);
#28=CYLINDRICAL_SURFACE('',#341,1.22070315856405E-5);
#29=CYLINDRICAL_SURFACE('',#344,5.5);
#30=CYLINDRICAL_SURFACE('',#347,2.4);
#31=CYLINDRICAL_SURFACE('',#348,2.4);
#32=CYLINDRICAL_SURFACE('',#352,1.);
#33=CYLINDRICAL_SURFACE('',#358,1.);
#34=CYLINDRICAL_SURFACE('',#360,1.);
#35=CYLINDRICAL_SURFACE('',#366,1.);
#36=CIRCLE('',#324,3.75);
#37=CIRCLE('',#325,2.4);
#38=CIRCLE('',#327,3.75);
#39=CIRCLE('',#328,2.4);
#40=CIRCLE('',#330,4.75);
#41=CIRCLE('',#331,2.4);
#42=CIRCLE('',#333,4.75);
#43=CIRCLE('',#334,2.4);
#44=CIRCLE('',#336,4.5);
#45=CIRCLE('',#337,4.5);
#46=CIRCLE('',#339,1.00001220703159);
#47=CIRCLE('',#340,1.00001220703159);
#48=CIRCLE('',#342,1.22070315856405E-5);
#49=CIRCLE('',#343,1.22070315856405E-5);
#50=CIRCLE('',#345,5.5);
#51=CIRCLE('',#346,5.5);
#52=CIRCLE('',#350,1.);
#53=CIRCLE('',#351,1.);
#54=CIRCLE('',#353,1.);
#55=CIRCLE('',#355,1.);
#56=CIRCLE('',#357,1.);
#57=CIRCLE('',#359,1.);
#58=CIRCLE('',#361,1.);
#59=CIRCLE('',#363,1.);
#60=CIRCLE('',#365,1.);
#61=CIRCLE('',#367,1.);
#62=ORIENTED_EDGE('',*,*,#142,.T.);
#63=ORIENTED_EDGE('',*,*,#143,.T.);
#64=ORIENTED_EDGE('',*,*,#144,.T.);
#65=ORIENTED_EDGE('',*,*,#145,.T.);
#66=ORIENTED_EDGE('',*,*,#146,.T.);
#67=ORIENTED_EDGE('',*,*,#147,.T.);
#68=ORIENTED_EDGE('',*,*,#148,.T.);
#69=ORIENTED_EDGE('',*,*,#149,.F.);
#70=ORIENTED_EDGE('',*,*,#150,.T.);
#71=ORIENTED_EDGE('',*,*,#151,.T.);
#72=ORIENTED_EDGE('',*,*,#152,.F.);
#73=ORIENTED_EDGE('',*,*,#153,.T.);
#74=ORIENTED_EDGE('',*,*,#154,.T.);
#75=ORIENTED_EDGE('',*,*,#155,.T.);
#76=ORIENTED_EDGE('',*,*,#156,.T.);
#77=ORIENTED_EDGE('',*,*,#157,.T.);
#78=ORIENTED_EDGE('',*,*,#158,.F.);
#79=ORIENTED_EDGE('',*,*,#159,.F.);
#80=ORIENTED_EDGE('',*,*,#160,.T.);
#81=ORIENTED_EDGE('',*,*,#161,.T.);
#82=ORIENTED_EDGE('',*,*,#162,.T.);
#83=ORIENTED_EDGE('',*,*,#163,.T.);
#84=ORIENTED_EDGE('',*,*,#142,.F.);
#85=ORIENTED_EDGE('',*,*,#164,.T.);
#86=ORIENTED_EDGE('',*,*,#149,.T.);
#87=ORIENTED_EDGE('',*,*,#165,.T.);
#88=ORIENTED_EDGE('',*,*,#162,.F.);
#89=ORIENTED_EDGE('',*,*,#166,.T.);
#90=ORIENTED_EDGE('',*,*,#167,.F.);
#91=ORIENTED_EDGE('',*,*,#155,.F.);
#92=ORIENTED_EDGE('',*,*,#168,.T.);
#93=ORIENTED_EDGE('',*,*,#169,.T.);
#94=ORIENTED_EDGE('',*,*,#170,.F.);
#95=ORIENTED_EDGE('',*,*,#169,.F.);
#96=ORIENTED_EDGE('',*,*,#171,.T.);
#97=ORIENTED_EDGE('',*,*,#159,.T.);
#98=ORIENTED_EDGE('',*,*,#161,.F.);
#99=ORIENTED_EDGE('',*,*,#146,.F.);
#100=ORIENTED_EDGE('',*,*,#156,.F.);
#101=ORIENTED_EDGE('',*,*,#151,.F.);
#102=ORIENTED_EDGE('',*,*,#172,.F.);
#103=ORIENTED_EDGE('',*,*,#164,.F.);
#104=ORIENTED_EDGE('',*,*,#173,.F.);
#105=ORIENTED_EDGE('',*,*,#171,.F.);
#106=ORIENTED_EDGE('',*,*,#173,.T.);
#107=ORIENTED_EDGE('',*,*,#145,.F.);
#108=ORIENTED_EDGE('',*,*,#174,.F.);
#109=ORIENTED_EDGE('',*,*,#160,.F.);
#110=ORIENTED_EDGE('',*,*,#172,.T.);
#111=ORIENTED_EDGE('',*,*,#168,.F.);
#112=ORIENTED_EDGE('',*,*,#175,.F.);
#113=ORIENTED_EDGE('',*,*,#166,.F.);
#114=ORIENTED_EDGE('',*,*,#174,.T.);
#115=ORIENTED_EDGE('',*,*,#144,.F.);
#116=ORIENTED_EDGE('',*,*,#176,.F.);
#117=ORIENTED_EDGE('',*,*,#157,.F.);
#118=ORIENTED_EDGE('',*,*,#175,.T.);
#119=ORIENTED_EDGE('',*,*,#154,.F.);
#120=ORIENTED_EDGE('',*,*,#177,.F.);
#121=ORIENTED_EDGE('',*,*,#150,.F.);
#122=ORIENTED_EDGE('',*,*,#176,.T.);
#123=ORIENTED_EDGE('',*,*,#143,.F.);
#124=ORIENTED_EDGE('',*,*,#178,.F.);
#125=ORIENTED_EDGE('',*,*,#158,.T.);
#126=ORIENTED_EDGE('',*,*,#177,.T.);
#127=ORIENTED_EDGE('',*,*,#153,.F.);
#128=ORIENTED_EDGE('',*,*,#179,.F.);
#129=ORIENTED_EDGE('',*,*,#147,.F.);
#130=ORIENTED_EDGE('',*,*,#178,.T.);
#131=ORIENTED_EDGE('',*,*,#163,.F.);
#132=ORIENTED_EDGE('',*,*,#180,.F.);
#133=ORIENTED_EDGE('',*,*,#170,.T.);
#134=ORIENTED_EDGE('',*,*,#179,.T.);
#135=ORIENTED_EDGE('',*,*,#152,.T.);
#136=ORIENTED_EDGE('',*,*,#181,.F.);
#137=ORIENTED_EDGE('',*,*,#148,.F.);
#138=ORIENTED_EDGE('',*,*,#180,.T.);
#139=ORIENTED_EDGE('',*,*,#165,.F.);
#140=ORIENTED_EDGE('',*,*,#181,.T.);
#141=ORIENTED_EDGE('',*,*,#167,.T.);
#142=EDGE_CURVE('',#182,#183,#206,.T.);
#143=EDGE_CURVE('',#183,#184,#207,.F.);
#144=EDGE_CURVE('',#184,#185,#36,.T.);
#145=EDGE_CURVE('',#185,#182,#208,.T.);
#146=EDGE_CURVE('',#186,#186,#37,.F.);
#147=EDGE_CURVE('',#187,#188,#38,.T.);
#148=EDGE_CURVE('',#188,#189,#209,.F.);
#149=EDGE_CURVE('',#190,#189,#210,.T.);
#150=EDGE_CURVE('',#190,#187,#211,.T.);
#151=EDGE_CURVE('',#191,#191,#39,.F.);
#152=EDGE_CURVE('',#192,#193,#212,.T.);
#153=EDGE_CURVE('',#192,#194,#40,.T.);
#154=EDGE_CURVE('',#194,#195,#213,.T.);
#155=EDGE_CURVE('',#195,#193,#214,.T.);
#156=EDGE_CURVE('',#196,#196,#41,.T.);
#157=EDGE_CURVE('',#197,#198,#42,.T.);
#158=EDGE_CURVE('',#199,#198,#215,.T.);
#159=EDGE_CURVE('',#200,#199,#216,.T.);
#160=EDGE_CURVE('',#200,#197,#217,.T.);
#161=EDGE_CURVE('',#201,#201,#43,.F.);
#162=EDGE_CURVE('',#202,#203,#218,.T.);
#163=EDGE_CURVE('',#203,#183,#44,.F.);
#164=EDGE_CURVE('',#182,#202,#45,.T.);
#165=EDGE_CURVE('',#189,#203,#46,.T.);
#166=EDGE_CURVE('',#202,#190,#47,.F.);
#167=EDGE_CURVE('',#193,#204,#48,.T.);
#168=EDGE_CURVE('',#195,#205,#49,.T.);
#169=EDGE_CURVE('',#205,#204,#219,.T.);
#170=EDGE_CURVE('',#204,#199,#50,.T.);
#171=EDGE_CURVE('',#205,#200,#51,.T.);
#172=EDGE_CURVE('',#202,#205,#52,.T.);
#173=EDGE_CURVE('',#200,#182,#53,.T.);
#174=EDGE_CURVE('',#197,#185,#54,.T.);
#175=EDGE_CURVE('',#190,#195,#55,.T.);
#176=EDGE_CURVE('',#198,#184,#56,.T.);
#177=EDGE_CURVE('',#187,#194,#57,.T.);
#178=EDGE_CURVE('',#199,#183,#58,.T.);
#179=EDGE_CURVE('',#188,#192,#59,.T.);
#180=EDGE_CURVE('',#204,#203,#60,.T.);
#181=EDGE_CURVE('',#189,#193,#61,.T.);
#182=VERTEX_POINT('',#480);
#183=VERTEX_POINT('',#481);
#184=VERTEX_POINT('',#483);
#185=VERTEX_POINT('',#485);
#186=VERTEX_POINT('',#488);
#187=VERTEX_POINT('',#491);
#188=VERTEX_POINT('',#492);
#189=VERTEX_POINT('',#494);
#190=VERTEX_POINT('',#496);
#191=VERTEX_POINT('',#499);
#192=VERTEX_POINT('',#502);
#193=VERTEX_POINT('',#503);
#194=VERTEX_POINT('',#505);
#195=VERTEX_POINT('',#507);
#196=VERTEX_POINT('',#510);
#197=VERTEX_POINT('',#513);
#198=VERTEX_POINT('',#514);
#199=VERTEX_POINT('',#516);
#200=VERTEX_POINT('',#518);
#201=VERTEX_POINT('',#521);
#202=VERTEX_POINT('',#524);
#203=VERTEX_POINT('',#525);
#204=VERTEX_POINT('',#533);
#205=VERTEX_POINT('',#535);
#206=LINE('',#479,#220);
#207=LINE('',#482,#221);
#208=LINE('',#486,#222);
#209=LINE('',#493,#223);
#210=LINE('',#495,#224);
#211=LINE('',#497,#225);
#212=LINE('',#501,#226);
#213=LINE('',#506,#227);
#214=LINE('',#508,#228);
#215=LINE('',#515,#229);
#216=LINE('',#517,#230);
#217=LINE('',#519,#231);
#218=LINE('',#523,#232);
#219=LINE('',#536,#233);
#220=VECTOR('',#373,1000.);
#221=VECTOR('',#374,1000.);
#222=VECTOR('',#377,1000.);
#223=VECTOR('',#384,1000.);
#224=VECTOR('',#385,1000.);
#225=VECTOR('',#386,1000.);
#226=VECTOR('',#391,1000.);
#227=VECTOR('',#394,1000.);
#228=VECTOR('',#395,1000.);
#229=VECTOR('',#402,1000.);
#230=VECTOR('',#403,1000.);
#231=VECTOR('',#404,1000.);
#232=VECTOR('',#409,1000.);
#233=VECTOR('',#426,1000.);
#234=EDGE_LOOP('',(#62,#63,#64,#65));
#235=EDGE_LOOP('',(#66));
#236=EDGE_LOOP('',(#67,#68,#69,#70));
#237=EDGE_LOOP('',(#71));
#238=EDGE_LOOP('',(#72,#73,#74,#75));
#239=EDGE_LOOP('',(#76));
#240=EDGE_LOOP('',(#77,#78,#79,#80));
#241=EDGE_LOOP('',(#81));
#242=EDGE_LOOP('',(#82,#83,#84,#85));
#243=EDGE_LOOP('',(#86,#87,#88,#89));
#244=EDGE_LOOP('',(#90,#91,#92,#93));
#245=EDGE_LOOP('',(#94,#95,#96,#97));
#246=EDGE_LOOP('',(#98));
#247=EDGE_LOOP('',(#99));
#248=EDGE_LOOP('',(#100));
#249=EDGE_LOOP('',(#101));
#250=EDGE_LOOP('',(#102,#103,#104,#105));
#251=EDGE_LOOP('',(#106,#107,#108,#109));
#252=EDGE_LOOP('',(#110,#111,#112,#113));
#253=EDGE_LOOP('',(#114,#115,#116,#117));
#254=EDGE_LOOP('',(#118,#119,#120,#121));
#255=EDGE_LOOP('',(#122,#123,#124,#125));
#256=EDGE_LOOP('',(#126,#127,#128,#129));
#257=EDGE_LOOP('',(#130,#131,#132,#133));
#258=EDGE_LOOP('',(#134,#135,#136,#137));
#259=EDGE_LOOP('',(#138,#139,#140,#141));
#260=FACE_BOUND('',#234,.T.);
#261=FACE_BOUND('',#235,.T.);
#262=FACE_BOUND('',#236,.T.);
#263=FACE_BOUND('',#237,.T.);
#264=FACE_BOUND('',#238,.T.);
#265=FACE_BOUND('',#239,.T.);
#266=FACE_BOUND('',#240,.T.);
#267=FACE_BOUND('',#241,.T.);
#268=FACE_BOUND('',#242,.T.);
#269=FACE_BOUND('',#243,.T.);
#270=FACE_BOUND('',#244,.T.);
#271=FACE_BOUND('',#245,.T.);
#272=FACE_BOUND('',#246,.T.);
#273=FACE_BOUND('',#247,.T.);
#274=FACE_BOUND('',#248,.T.);
#275=FACE_BOUND('',#249,.T.);
#276=FACE_BOUND('',#250,.T.);
#277=FACE_BOUND('',#251,.T.);
#278=FACE_BOUND('',#252,.T.);
#279=FACE_BOUND('',#253,.T.);
#280=FACE_BOUND('',#254,.T.);
#281=FACE_BOUND('',#255,.T.);
#282=FACE_BOUND('',#256,.T.);
#283=FACE_BOUND('',#257,.T.);
#284=FACE_BOUND('',#258,.T.);
#285=FACE_BOUND('',#259,.T.);
#286=PLANE('',#323);
#287=PLANE('',#326);
#288=PLANE('',#329);
#289=PLANE('',#332);
#290=ADVANCED_FACE('',(#260,#261),#286,.T.);
#291=ADVANCED_FACE('',(#262,#263),#287,.T.);
#292=ADVANCED_FACE('',(#264,#265),#288,.T.);
#293=ADVANCED_FACE('',(#266,#267),#289,.T.);
#294=ADVANCED_FACE('',(#268),#26,.F.);
#295=ADVANCED_FACE('',(#269),#27,.T.);
#296=ADVANCED_FACE('',(#270),#28,.F.);
#297=ADVANCED_FACE('',(#271),#29,.T.);
#298=ADVANCED_FACE('',(#272,#273),#30,.F.);
#299=ADVANCED_FACE('',(#274,#275),#31,.F.);
#300=ADVANCED_FACE('',(#276),#22,.T.);
#301=ADVANCED_FACE('',(#277),#32,.T.);
#302=ADVANCED_FACE('',(#278),#20,.T.);
#303=ADVANCED_FACE('',(#279),#23,.T.);
#304=ADVANCED_FACE('',(#280),#33,.T.);
#305=ADVANCED_FACE('',(#281),#34,.T.);
#306=ADVANCED_FACE('',(#282),#24,.T.);
#307=ADVANCED_FACE('',(#283),#25,.T.);
#308=ADVANCED_FACE('',(#284),#35,.T.);
#309=ADVANCED_FACE('',(#285),#21,.T.);
#310=CLOSED_SHELL('',(#290,#291,#292,#293,#294,#295,#296,#297,#298,#299,
#300,#301,#302,#303,#304,#305,#306,#307,#308,#309));
#311=STYLED_ITEM('',(#312),#319);
#312=PRESENTATION_STYLE_ASSIGNMENT((#313));
#313=SURFACE_STYLE_USAGE(.BOTH.,#314);
#314=SURFACE_SIDE_STYLE('',(#315));
#315=SURFACE_STYLE_FILL_AREA(#316);
#316=FILL_AREA_STYLE('',(#317));
#317=FILL_AREA_STYLE_COLOUR('',#318);
#318=COLOUR_RGB('',0.645180702209473,0.678915679454803,0.699999988079071);
#319=MANIFOLD_SOLID_BREP('',#310);
#320=SHAPE_DEFINITION_REPRESENTATION(#568,#321);
#321=SHAPE_REPRESENTATION('500915000',(#322),#563);
#322=AXIS2_PLACEMENT_3D('',#477,#369,#370);
#323=AXIS2_PLACEMENT_3D('',#478,#371,#372);
#324=AXIS2_PLACEMENT_3D('',#484,#375,#376);
#325=AXIS2_PLACEMENT_3D('',#487,#378,#379);
#326=AXIS2_PLACEMENT_3D('',#489,#380,#381);
#327=AXIS2_PLACEMENT_3D('',#490,#382,#383);
#328=AXIS2_PLACEMENT_3D('',#498,#387,#388);
#329=AXIS2_PLACEMENT_3D('',#500,#389,#390);
#330=AXIS2_PLACEMENT_3D('',#504,#392,#393);
#331=AXIS2_PLACEMENT_3D('',#509,#396,#397);
#332=AXIS2_PLACEMENT_3D('',#511,#398,#399);
#333=AXIS2_PLACEMENT_3D('',#512,#400,#401);
#334=AXIS2_PLACEMENT_3D('',#520,#405,#406);
#335=AXIS2_PLACEMENT_3D('',#522,#407,#408);
#336=AXIS2_PLACEMENT_3D('',#526,#410,#411);
#337=AXIS2_PLACEMENT_3D('',#527,#412,#413);
#338=AXIS2_PLACEMENT_3D('',#528,#414,#415);
#339=AXIS2_PLACEMENT_3D('',#529,#416,#417);
#340=AXIS2_PLACEMENT_3D('',#530,#418,#419);
#341=AXIS2_PLACEMENT_3D('',#531,#420,#421);
#342=AXIS2_PLACEMENT_3D('',#532,#422,#423);
#343=AXIS2_PLACEMENT_3D('',#534,#424,#425);
#344=AXIS2_PLACEMENT_3D('',#537,#427,#428);
#345=AXIS2_PLACEMENT_3D('',#538,#429,#430);
#346=AXIS2_PLACEMENT_3D('',#539,#431,#432);
#347=AXIS2_PLACEMENT_3D('',#540,#433,#434);
#348=AXIS2_PLACEMENT_3D('',#541,#435,#436);
#349=AXIS2_PLACEMENT_3D('',#542,#437,#438);
#350=AXIS2_PLACEMENT_3D('',#543,#439,#440);
#351=AXIS2_PLACEMENT_3D('',#544,#441,#442);
#352=AXIS2_PLACEMENT_3D('',#545,#443,#444);
#353=AXIS2_PLACEMENT_3D('',#546,#445,#446);
#354=AXIS2_PLACEMENT_3D('',#547,#447,#448);
#355=AXIS2_PLACEMENT_3D('',#548,#449,#450);
#356=AXIS2_PLACEMENT_3D('',#549,#451,#452);
#357=AXIS2_PLACEMENT_3D('',#550,#453,#454);
#358=AXIS2_PLACEMENT_3D('',#551,#455,#456);
#359=AXIS2_PLACEMENT_3D('',#552,#457,#458);
#360=AXIS2_PLACEMENT_3D('',#553,#459,#460);
#361=AXIS2_PLACEMENT_3D('',#554,#461,#462);
#362=AXIS2_PLACEMENT_3D('',#555,#463,#464);
#363=AXIS2_PLACEMENT_3D('',#556,#465,#466);
#364=AXIS2_PLACEMENT_3D('',#557,#467,#468);
#365=AXIS2_PLACEMENT_3D('',#558,#469,#470);
#366=AXIS2_PLACEMENT_3D('',#559,#471,#472);
#367=AXIS2_PLACEMENT_3D('',#560,#473,#474);
#368=AXIS2_PLACEMENT_3D('',#561,#475,#476);
#369=DIRECTION('',(0.,0.,1.));
#370=DIRECTION('',(1.,0.,0.));
#371=DIRECTION('',(0.,0.,1.));
#372=DIRECTION('',(1.,0.,0.));
#373=DIRECTION('',(0.,1.,0.));
#374=DIRECTION('',(1.,0.,0.));
#375=DIRECTION('',(0.,0.,1.));
#376=DIRECTION('',(1.,0.,0.));
#377=DIRECTION('',(1.,0.,0.));
#378=DIRECTION('',(0.,0.,1.));
#379=DIRECTION('',(1.,0.,0.));
#380=DIRECTION('',(7.40797820815793E-17,0.,-1.));
#381=DIRECTION('',(-1.,0.,-7.40797820815793E-17));
#382=DIRECTION('',(7.40797820815793E-17,0.,-1.));
#383=DIRECTION('',(-1.,0.,-7.40797820815793E-17));
#384=DIRECTION('',(-1.,0.,-7.40797820815793E-17));
#385=DIRECTION('',(0.,1.,0.));
#386=DIRECTION('',(-1.,0.,-7.40797820815793E-17));
#387=DIRECTION('',(7.40797820815793E-17,0.,-1.));
#388=DIRECTION('',(-1.,0.,-7.40797820815793E-17));
#389=DIRECTION('',(-1.48159564163159E-16,0.,1.));
#390=DIRECTION('',(1.,0.,1.48159564163159E-16));
#391=DIRECTION('',(1.,0.,1.48159564163159E-16));
#392=DIRECTION('',(-1.48159564163159E-16,0.,1.));
#393=DIRECTION('',(1.,0.,1.48159564163159E-16));
#394=DIRECTION('',(1.,0.,1.48159564163159E-16));
#395=DIRECTION('',(0.,1.,0.));
#396=DIRECTION('',(1.00356757602156E-16,0.,-1.));
#397=DIRECTION('',(1.,0.,1.00356757602156E-16));
#398=DIRECTION('',(0.,0.,-1.));
#399=DIRECTION('',(-1.,0.,0.));
#400=DIRECTION('',(0.,0.,-1.));
#401=DIRECTION('',(-1.,0.,0.));
#402=DIRECTION('',(-1.,0.,0.));
#403=DIRECTION('',(0.,1.,0.));
#404=DIRECTION('',(-1.,0.,0.));
#405=DIRECTION('',(0.,0.,-1.));
#406=DIRECTION('',(-1.,0.,0.));
#407=DIRECTION('',(0.,1.,0.));
#408=DIRECTION('',(0.,0.,1.));
#409=DIRECTION('',(0.,1.,0.));
#410=DIRECTION('',(0.,-1.,0.));
#411=DIRECTION('',(0.,0.,-1.));
#412=DIRECTION('',(0.,-1.,0.));
#413=DIRECTION('',(0.,0.,-1.));
#414=DIRECTION('',(0.,1.,0.));
#415=DIRECTION('',(0.,0.,1.));
#416=DIRECTION('',(0.,-1.,0.));
#417=DIRECTION('',(0.,0.,-1.));
#418=DIRECTION('',(0.,-1.,0.));
#419=DIRECTION('',(0.,0.,-1.));
#420=DIRECTION('',(0.,1.,0.));
#421=DIRECTION('',(0.,0.,1.));
#422=DIRECTION('',(0.,-1.,0.));
#423=DIRECTION('',(-1.,0.,0.));
#424=DIRECTION('',(0.,-1.,0.));
#425=DIRECTION('',(-1.,0.,0.));
#426=DIRECTION('',(0.,1.,0.));
#427=DIRECTION('',(0.,1.,0.));
#428=DIRECTION('',(0.,0.,1.));
#429=DIRECTION('',(0.,1.,0.));
#430=DIRECTION('',(-1.,0.,0.));
#431=DIRECTION('',(0.,1.,0.));
#432=DIRECTION('',(-1.,0.,0.));
#433=DIRECTION('',(-1.00356757602156E-16,0.,1.));
#434=DIRECTION('',(1.,0.,1.00356757602156E-16));
#435=DIRECTION('',(-1.00356757602156E-16,0.,1.));
#436=DIRECTION('',(1.,0.,1.00356757602156E-16));
#437=DIRECTION('',(0.,-1.,0.));
#438=DIRECTION('',(0.,0.,-1.));
#439=DIRECTION('',(0.272724447965902,3.57447855541415E-15,-0.962092186581771));
#440=DIRECTION('',(-0.962092186581772,0.,-0.272724447965902));
#441=DIRECTION('',(-1.,0.,0.));
#442=DIRECTION('',(0.,0.,1.));
#443=DIRECTION('',(1.,0.,0.));
#444=DIRECTION('',(0.,0.,-1.));
#445=DIRECTION('',(-1.,0.,0.));
#446=DIRECTION('',(0.,0.,1.));
#447=DIRECTION('',(0.,-1.,0.));
#448=DIRECTION('',(0.,0.,-1.));
#449=DIRECTION('',(-1.,0.,0.));
#450=DIRECTION('',(0.,0.,1.));
#451=DIRECTION('',(0.,0.,1.));
#452=DIRECTION('',(1.,0.,0.));
#453=DIRECTION('',(1.,0.,0.));
#454=DIRECTION('',(0.,0.,-1.));
#455=DIRECTION('',(-1.,0.,-7.40797820815793E-17));
#456=DIRECTION('',(-7.40797820815793E-17,0.,1.));
#457=DIRECTION('',(-1.,0.,0.));
#458=DIRECTION('',(0.,0.,1.));
#459=DIRECTION('',(-1.,0.,0.));
#460=DIRECTION('',(0.,0.,1.));
#461=DIRECTION('',(1.,0.,0.));
#462=DIRECTION('',(0.,0.,-1.));
#463=DIRECTION('',(7.40797820815793E-17,0.,-1.));
#464=DIRECTION('',(-1.,0.,-7.40797820815793E-17));
#465=DIRECTION('',(1.,0.,0.));
#466=DIRECTION('',(0.,0.,-1.));
#467=DIRECTION('',(0.,-1.,0.));
#468=DIRECTION('',(0.,0.,-1.));
#469=DIRECTION('',(0.272724447965905,0.,-0.962092186581771));
#470=DIRECTION('',(-0.962092186581771,0.,-0.272724447965905));
#471=DIRECTION('',(1.,0.,7.40797820815793E-17));
#472=DIRECTION('',(7.40797820815793E-17,0.,-1.));
#473=DIRECTION('',(1.,0.,0.));
#474=DIRECTION('',(0.,0.,-1.));
#475=DIRECTION('',(0.,-1.,0.));
#476=DIRECTION('',(0.,0.,-1.));
#477=CARTESIAN_POINT('',(0.,0.,0.));
#478=CARTESIAN_POINT('',(-17.,-4.75,1.));
#479=CARTESIAN_POINT('',(0.,-4.75,1.));
#480=CARTESIAN_POINT('',(0.,-3.75,1.));
#481=CARTESIAN_POINT('',(0.,3.75,1.));
#482=CARTESIAN_POINT('',(-12.25,3.75,1.));
#483=CARTESIAN_POINT('',(-12.25,3.75,1.));
#484=CARTESIAN_POINT('',(-12.25,0.,1.));
#485=CARTESIAN_POINT('',(-12.25,-3.75,1.));
#486=CARTESIAN_POINT('',(-17.,-3.75,1.));
#487=CARTESIAN_POINT('',(-12.4,0.,1.));
#488=CARTESIAN_POINT('',(-10.,0.,1.));
#489=CARTESIAN_POINT('',(-5.29151877048945,-4.75,3.));
#490=CARTESIAN_POINT('',(-12.25,0.,3.));
#491=CARTESIAN_POINT('',(-12.25,-3.75,3.));
#492=CARTESIAN_POINT('',(-12.25,3.75,3.));
#493=CARTESIAN_POINT('',(-5.29151877048945,3.75,3.));
#494=CARTESIAN_POINT('',(-5.29151877048945,3.75,3.));
#495=CARTESIAN_POINT('',(-5.29151877048945,-4.75,3.));
#496=CARTESIAN_POINT('',(-5.29151877048945,-3.75,3.));
#497=CARTESIAN_POINT('',(-5.29151877048945,-3.75,3.));
#498=CARTESIAN_POINT('',(-12.4,0.,3.));
#499=CARTESIAN_POINT('',(-14.8,0.,3.));
#500=CARTESIAN_POINT('',(-5.29151877048945,-4.75,4.));
#501=CARTESIAN_POINT('',(-5.29151877048945,4.75,4.));
#502=CARTESIAN_POINT('',(-12.25,4.75,4.));
#503=CARTESIAN_POINT('',(-5.29151877048945,4.75,4.));
#504=CARTESIAN_POINT('',(-12.25,0.,4.));
#505=CARTESIAN_POINT('',(-12.25,-4.75,4.));
#506=CARTESIAN_POINT('',(-5.29151877048945,-4.75,4.));
#507=CARTESIAN_POINT('',(-5.29151877048945,-4.75,4.));
#508=CARTESIAN_POINT('',(-5.29151877048945,-4.75,4.));
#509=CARTESIAN_POINT('',(-12.4,0.,4.));
#510=CARTESIAN_POINT('',(-10.,0.,4.));
#511=CARTESIAN_POINT('',(-17.,-4.75,0.));
#512=CARTESIAN_POINT('',(-12.25,0.,0.));
#513=CARTESIAN_POINT('',(-12.25,-4.75,0.));
#514=CARTESIAN_POINT('',(-12.25,4.75,0.));
#515=CARTESIAN_POINT('',(-17.,4.75,0.));
#516=CARTESIAN_POINT('',(1.01033360929657E-15,4.75,0.));
#517=CARTESIAN_POINT('',(1.01033360929657E-15,-4.75,0.));
#518=CARTESIAN_POINT('',(1.01033360929657E-15,-4.75,0.));
#519=CARTESIAN_POINT('',(-17.,-4.75,0.));
#520=CARTESIAN_POINT('',(-12.4,0.,0.));
#521=CARTESIAN_POINT('',(-14.8,0.,0.));
#522=CARTESIAN_POINT('',(0.,-4.75,5.5));
#523=CARTESIAN_POINT('',(-4.32941483961797,-4.75,4.27273998415344));
#524=CARTESIAN_POINT('',(-4.32941483961797,-3.75,4.27273998415344));
#525=CARTESIAN_POINT('',(-4.32941483961797,3.75,4.27273998415344));
#526=CARTESIAN_POINT('',(0.,3.75,5.5));
#527=CARTESIAN_POINT('',(0.,-3.75,5.5));
#528=CARTESIAN_POINT('',(-5.29151877048945,-4.75,4.00001220703159));
#529=CARTESIAN_POINT('',(-5.29151877048945,3.75,4.00001220703159));
#530=CARTESIAN_POINT('',(-5.29151877048945,-3.75,4.00001220703159));
#531=CARTESIAN_POINT('',(-5.29151877048945,-4.75,4.00001220703159));
#532=CARTESIAN_POINT('',(-5.29151877048945,4.75,4.00001220703159));
#533=CARTESIAN_POINT('',(-5.29150656345787,4.75,4.00001220703159));
#534=CARTESIAN_POINT('',(-5.29151877048945,-4.75,4.00001220703159));
#535=CARTESIAN_POINT('',(-5.29150656345787,-4.75,4.00001220703159));
#536=CARTESIAN_POINT('',(-5.29150656345787,-4.75,4.00001220703159));
#537=CARTESIAN_POINT('',(0.,-4.75,5.5));
#538=CARTESIAN_POINT('',(0.,4.75,5.5));
#539=CARTESIAN_POINT('',(0.,-4.75,5.5));
#540=CARTESIAN_POINT('',(-12.4,0.,-22.7861904719577));
#541=CARTESIAN_POINT('',(-12.4,0.,-22.7861904719577));
#542=CARTESIAN_POINT('',(0.,-3.75,5.5));
#543=CARTESIAN_POINT('',(-5.29150702619974,-3.75,4.00001553618754));
#544=CARTESIAN_POINT('',(0.,-3.75,-4.33680868994202E-16));
#545=CARTESIAN_POINT('',(-17.,-3.75,-4.33680868994202E-16));
#546=CARTESIAN_POINT('',(-12.25,-3.75,-4.33680868994202E-16));
#547=CARTESIAN_POINT('',(-5.29151877048945,-3.75,4.00001220703159));
#548=CARTESIAN_POINT('',(-5.29151877048945,-3.75,4.));
#549=CARTESIAN_POINT('',(-12.25,0.,-4.33680868994202E-16));
#550=CARTESIAN_POINT('',(-12.25,3.75,-4.33680868994202E-16));
#551=CARTESIAN_POINT('',(-5.29151877048945,-3.75,4.));
#552=CARTESIAN_POINT('',(-12.25,-3.75,4.));
#553=CARTESIAN_POINT('',(0.,3.75,0.));
#554=CARTESIAN_POINT('',(0.,3.75,0.));
#555=CARTESIAN_POINT('',(-12.25,0.,4.));
#556=CARTESIAN_POINT('',(-12.25,3.75,4.));
#557=CARTESIAN_POINT('',(0.,3.75,5.5));
#558=CARTESIAN_POINT('',(-5.29150702619974,3.75,4.00001553618754));
#559=CARTESIAN_POINT('',(1.11119673122369E-16,3.75,4.));
#560=CARTESIAN_POINT('',(-5.29151877048945,3.75,4.));
#561=CARTESIAN_POINT('',(-5.29151877048945,3.75,4.00001220703159));
#562=MECHANICAL_DESIGN_GEOMETRIC_PRESENTATION_REPRESENTATION('',(#311),
#563);
#563=(
GEOMETRIC_REPRESENTATION_CONTEXT(3)
GLOBAL_UNCERTAINTY_ASSIGNED_CONTEXT((#564))
GLOBAL_UNIT_ASSIGNED_CONTEXT((#567,#566,#565))
REPRESENTATION_CONTEXT('500915000','TOP_LEVEL_ASSEMBLY_PART')
);
#564=UNCERTAINTY_MEASURE_WITH_UNIT(LENGTH_MEASURE(0.005),#567,
'DISTANCE_ACCURACY_VALUE','Maximum Tolerance applied to model');
#565=(
NAMED_UNIT(*)
SI_UNIT($,.STERADIAN.)
SOLID_ANGLE_UNIT()
);
#566=(
NAMED_UNIT(*)
PLANE_ANGLE_UNIT()
SI_UNIT($,.RADIAN.)
);
#567=(
LENGTH_UNIT()
NAMED_UNIT(*)
SI_UNIT(.MILLI.,.METRE.)
);
#568=PRODUCT_DEFINITION_SHAPE('','',#569);
#569=PRODUCT_DEFINITION('','',#571,#570);
#570=PRODUCT_DEFINITION_CONTEXT('',#577,'design');
#571=PRODUCT_DEFINITION_FORMATION_WITH_SPECIFIED_SOURCE('','',#573,
 .NOT_KNOWN.);
#572=PRODUCT_RELATED_PRODUCT_CATEGORY('','',(#573));
#573=PRODUCT('500915000','500915000','500915000',(#575));
#574=PRODUCT_CATEGORY('','');
#575=PRODUCT_CONTEXT('',#577,'mechanical');
#576=APPLICATION_PROTOCOL_DEFINITION('international standard',
'automotive_design',2010,#577);
#577=APPLICATION_CONTEXT(
'core data for automotive mechanical design processes');
ENDSEC;
END-ISO-10303-21;
