ISO-10303-21;
HEADER;
/* Generated by software containing ST-Developer
 * from STEP Tools, Inc. (www.steptools.com) 
 */
/* OPTION: strings as raw bytes, not using required /X/ escapes */

FILE_DESCRIPTION(
/* description */ ('Unknown'),
/* implementation_level */ '2;1');

FILE_NAME(
/* name */ '500912500',
/* time_stamp */ '2021-01-28T11:18:52+01:00',
/* author */ ('Unknown'),
/* organization */ ('Unknown'),
/* preprocessor_version */ 'ST-DEVELOPER v16.7',
/* originating_system */ 'DEX',
/* authorisation */ $);

FILE_SCHEMA (('AUTOMOTIVE_DESIGN {1 0 10303 214 3 1 1}'));
ENDSEC;

DATA;
#10=PROPERTY_DEFINITION_REPRESENTATION(#14,#12);
#11=PROPERTY_DEFINITION_REPRESENTATION(#15,#13);
#12=REPRESENTATION('',(#16),#463);
#13=REPRESENTATION('',(#17),#463);
#14=PROPERTY_DEFINITION('pmi validation property','',#468);
#15=PROPERTY_DEFINITION('pmi validation property','',#468);
#16=VALUE_REPRESENTATION_ITEM('number of annotations',COUNT_MEASURE(0.));
#17=VALUE_REPRESENTATION_ITEM('number of views',COUNT_MEASURE(0.));
#18=SHAPE_REPRESENTATION_RELATIONSHIP('','',#277,#19);
#19=ADVANCED_BREP_SHAPE_REPRESENTATION('',(#275),#463);
#20=ELLIPSE('',#290,3.31046260169734,3.15);
#21=ELLIPSE('',#293,3.31046260169734,3.15);
#22=CYLINDRICAL_SURFACE('',#282,2.75);
#23=CYLINDRICAL_SURFACE('',#285,0.1);
#24=CYLINDRICAL_SURFACE('',#294,1.1);
#25=CYLINDRICAL_SURFACE('',#297,1.75);
#26=CYLINDRICAL_SURFACE('',#305,1.85);
#27=CYLINDRICAL_SURFACE('',#306,1.85);
#28=CYLINDRICAL_SURFACE('',#307,3.15);
#29=CYLINDRICAL_SURFACE('',#308,3.15);
#30=LINE('',#393,#48);
#31=LINE('',#398,#49);
#32=LINE('',#400,#50);
#33=LINE('',#404,#51);
#34=LINE('',#410,#52);
#35=LINE('',#416,#53);
#36=LINE('',#420,#54);
#37=LINE('',#427,#55);
#38=LINE('',#429,#56);
#39=LINE('',#431,#57);
#40=LINE('',#435,#58);
#41=LINE('',#441,#59);
#42=LINE('',#450,#60);
#43=LINE('',#451,#61);
#44=LINE('',#453,#62);
#45=LINE('',#454,#63);
#46=LINE('',#456,#64);
#47=LINE('',#457,#65);
#48=VECTOR('',#315,1000.);
#49=VECTOR('',#318,1000.);
#50=VECTOR('',#319,1000.);
#51=VECTOR('',#324,1000.);
#52=VECTOR('',#331,1000.);
#53=VECTOR('',#338,1000.);
#54=VECTOR('',#341,1000.);
#55=VECTOR('',#348,1000.);
#56=VECTOR('',#349,1000.);
#57=VECTOR('',#350,1000.);
#58=VECTOR('',#355,1000.);
#59=VECTOR('',#362,1000.);
#60=VECTOR('',#371,1000.);
#61=VECTOR('',#372,1000.);
#62=VECTOR('',#375,1000.);
#63=VECTOR('',#376,1000.);
#64=VECTOR('',#379,1000.);
#65=VECTOR('',#380,1000.);
#66=ORIENTED_EDGE('',*,*,#134,.T.);
#67=ORIENTED_EDGE('',*,*,#135,.F.);
#68=ORIENTED_EDGE('',*,*,#136,.T.);
#69=ORIENTED_EDGE('',*,*,#137,.T.);
#70=ORIENTED_EDGE('',*,*,#138,.F.);
#71=ORIENTED_EDGE('',*,*,#139,.T.);
#72=ORIENTED_EDGE('',*,*,#140,.F.);
#73=ORIENTED_EDGE('',*,*,#141,.F.);
#74=ORIENTED_EDGE('',*,*,#138,.T.);
#75=ORIENTED_EDGE('',*,*,#142,.T.);
#76=ORIENTED_EDGE('',*,*,#143,.F.);
#77=ORIENTED_EDGE('',*,*,#144,.F.);
#78=ORIENTED_EDGE('',*,*,#140,.T.);
#79=ORIENTED_EDGE('',*,*,#145,.F.);
#80=ORIENTED_EDGE('',*,*,#146,.T.);
#81=ORIENTED_EDGE('',*,*,#147,.T.);
#82=ORIENTED_EDGE('',*,*,#148,.F.);
#83=ORIENTED_EDGE('',*,*,#143,.T.);
#84=ORIENTED_EDGE('',*,*,#149,.T.);
#85=ORIENTED_EDGE('',*,*,#150,.T.);
#86=ORIENTED_EDGE('',*,*,#151,.T.);
#87=ORIENTED_EDGE('',*,*,#152,.F.);
#88=ORIENTED_EDGE('',*,*,#153,.F.);
#89=ORIENTED_EDGE('',*,*,#154,.T.);
#90=ORIENTED_EDGE('',*,*,#155,.F.);
#91=ORIENTED_EDGE('',*,*,#156,.F.);
#92=ORIENTED_EDGE('',*,*,#152,.T.);
#93=ORIENTED_EDGE('',*,*,#157,.T.);
#94=ORIENTED_EDGE('',*,*,#158,.F.);
#95=ORIENTED_EDGE('',*,*,#159,.F.);
#96=ORIENTED_EDGE('',*,*,#155,.T.);
#97=ORIENTED_EDGE('',*,*,#160,.F.);
#98=ORIENTED_EDGE('',*,*,#161,.T.);
#99=ORIENTED_EDGE('',*,*,#162,.F.);
#100=ORIENTED_EDGE('',*,*,#158,.T.);
#101=ORIENTED_EDGE('',*,*,#163,.T.);
#102=ORIENTED_EDGE('',*,*,#162,.T.);
#103=ORIENTED_EDGE('',*,*,#164,.T.);
#104=ORIENTED_EDGE('',*,*,#135,.T.);
#105=ORIENTED_EDGE('',*,*,#141,.T.);
#106=ORIENTED_EDGE('',*,*,#144,.T.);
#107=ORIENTED_EDGE('',*,*,#148,.T.);
#108=ORIENTED_EDGE('',*,*,#165,.T.);
#109=ORIENTED_EDGE('',*,*,#153,.T.);
#110=ORIENTED_EDGE('',*,*,#156,.T.);
#111=ORIENTED_EDGE('',*,*,#159,.T.);
#112=ORIENTED_EDGE('',*,*,#151,.F.);
#113=ORIENTED_EDGE('',*,*,#166,.T.);
#114=ORIENTED_EDGE('',*,*,#146,.F.);
#115=ORIENTED_EDGE('',*,*,#142,.F.);
#116=ORIENTED_EDGE('',*,*,#139,.F.);
#117=ORIENTED_EDGE('',*,*,#137,.F.);
#118=ORIENTED_EDGE('',*,*,#167,.T.);
#119=ORIENTED_EDGE('',*,*,#163,.F.);
#120=ORIENTED_EDGE('',*,*,#157,.F.);
#121=ORIENTED_EDGE('',*,*,#154,.F.);
#122=ORIENTED_EDGE('',*,*,#149,.F.);
#123=ORIENTED_EDGE('',*,*,#145,.T.);
#124=ORIENTED_EDGE('',*,*,#134,.F.);
#125=ORIENTED_EDGE('',*,*,#160,.T.);
#126=ORIENTED_EDGE('',*,*,#161,.F.);
#127=ORIENTED_EDGE('',*,*,#167,.F.);
#128=ORIENTED_EDGE('',*,*,#136,.F.);
#129=ORIENTED_EDGE('',*,*,#164,.F.);
#130=ORIENTED_EDGE('',*,*,#147,.F.);
#131=ORIENTED_EDGE('',*,*,#166,.F.);
#132=ORIENTED_EDGE('',*,*,#150,.F.);
#133=ORIENTED_EDGE('',*,*,#165,.F.);
#134=EDGE_CURVE('',#168,#168,#192,.T.);
#135=EDGE_CURVE('',#169,#170,#30,.T.);
#136=EDGE_CURVE('',#169,#171,#193,.F.);
#137=EDGE_CURVE('',#171,#172,#31,.T.);
#138=EDGE_CURVE('',#170,#172,#32,.T.);
#139=EDGE_CURVE('',#172,#173,#194,.T.);
#140=EDGE_CURVE('',#174,#173,#33,.T.);
#141=EDGE_CURVE('',#170,#174,#195,.T.);
#142=EDGE_CURVE('',#173,#175,#196,.T.);
#143=EDGE_CURVE('',#176,#175,#34,.T.);
#144=EDGE_CURVE('',#174,#176,#197,.T.);
#145=EDGE_CURVE('',#177,#177,#198,.T.);
#146=EDGE_CURVE('',#175,#178,#35,.T.);
#147=EDGE_CURVE('',#178,#179,#20,.F.);
#148=EDGE_CURVE('',#176,#179,#36,.T.);
#149=EDGE_CURVE('',#180,#180,#199,.T.);
#150=EDGE_CURVE('',#181,#182,#21,.F.);
#151=EDGE_CURVE('',#182,#183,#37,.T.);
#152=EDGE_CURVE('',#184,#183,#38,.T.);
#153=EDGE_CURVE('',#181,#184,#39,.T.);
#154=EDGE_CURVE('',#183,#185,#200,.T.);
#155=EDGE_CURVE('',#186,#185,#40,.T.);
#156=EDGE_CURVE('',#184,#186,#201,.T.);
#157=EDGE_CURVE('',#185,#187,#202,.T.);
#158=EDGE_CURVE('',#188,#187,#41,.T.);
#159=EDGE_CURVE('',#186,#188,#203,.T.);
#160=EDGE_CURVE('',#189,#189,#204,.T.);
#161=EDGE_CURVE('',#190,#191,#205,.F.);
#162=EDGE_CURVE('',#188,#191,#42,.T.);
#163=EDGE_CURVE('',#187,#190,#43,.T.);
#164=EDGE_CURVE('',#191,#169,#44,.T.);
#165=EDGE_CURVE('',#179,#181,#45,.T.);
#166=EDGE_CURVE('',#182,#178,#46,.F.);
#167=EDGE_CURVE('',#171,#190,#47,.F.);
#168=VERTEX_POINT('',#392);
#169=VERTEX_POINT('',#394);
#170=VERTEX_POINT('',#395);
#171=VERTEX_POINT('',#397);
#172=VERTEX_POINT('',#399);
#173=VERTEX_POINT('',#403);
#174=VERTEX_POINT('',#405);
#175=VERTEX_POINT('',#409);
#176=VERTEX_POINT('',#411);
#177=VERTEX_POINT('',#415);
#178=VERTEX_POINT('',#417);
#179=VERTEX_POINT('',#419);
#180=VERTEX_POINT('',#423);
#181=VERTEX_POINT('',#425);
#182=VERTEX_POINT('',#426);
#183=VERTEX_POINT('',#428);
#184=VERTEX_POINT('',#430);
#185=VERTEX_POINT('',#434);
#186=VERTEX_POINT('',#436);
#187=VERTEX_POINT('',#440);
#188=VERTEX_POINT('',#442);
#189=VERTEX_POINT('',#446);
#190=VERTEX_POINT('',#448);
#191=VERTEX_POINT('',#449);
#192=CIRCLE('',#280,1.85);
#193=CIRCLE('',#281,3.15);
#194=CIRCLE('',#283,2.75);
#195=CIRCLE('',#284,2.75);
#196=CIRCLE('',#286,0.1);
#197=CIRCLE('',#287,0.1);
#198=CIRCLE('',#289,1.85);
#199=CIRCLE('',#292,1.85);
#200=CIRCLE('',#295,1.1);
#201=CIRCLE('',#296,1.1);
#202=CIRCLE('',#298,1.75);
#203=CIRCLE('',#299,1.75);
#204=CIRCLE('',#301,1.85);
#205=CIRCLE('',#302,3.15);
#206=EDGE_LOOP('',(#66));
#207=EDGE_LOOP('',(#67,#68,#69,#70));
#208=EDGE_LOOP('',(#71,#72,#73,#74));
#209=EDGE_LOOP('',(#75,#76,#77,#78));
#210=EDGE_LOOP('',(#79));
#211=EDGE_LOOP('',(#80,#81,#82,#83));
#212=EDGE_LOOP('',(#84));
#213=EDGE_LOOP('',(#85,#86,#87,#88));
#214=EDGE_LOOP('',(#89,#90,#91,#92));
#215=EDGE_LOOP('',(#93,#94,#95,#96));
#216=EDGE_LOOP('',(#97));
#217=EDGE_LOOP('',(#98,#99,#100,#101));
#218=EDGE_LOOP('',(#102,#103,#104,#105,#106,#107,#108,#109,#110,#111));
#219=EDGE_LOOP('',(#112,#113,#114,#115,#116,#117,#118,#119,#120,#121));
#220=EDGE_LOOP('',(#122));
#221=EDGE_LOOP('',(#123));
#222=EDGE_LOOP('',(#124));
#223=EDGE_LOOP('',(#125));
#224=EDGE_LOOP('',(#126,#127,#128,#129));
#225=EDGE_LOOP('',(#130,#131,#132,#133));
#226=FACE_BOUND('',#206,.T.);
#227=FACE_BOUND('',#207,.T.);
#228=FACE_BOUND('',#208,.T.);
#229=FACE_BOUND('',#209,.T.);
#230=FACE_BOUND('',#210,.T.);
#231=FACE_BOUND('',#211,.T.);
#232=FACE_BOUND('',#212,.T.);
#233=FACE_BOUND('',#213,.T.);
#234=FACE_BOUND('',#214,.T.);
#235=FACE_BOUND('',#215,.T.);
#236=FACE_BOUND('',#216,.T.);
#237=FACE_BOUND('',#217,.T.);
#238=FACE_BOUND('',#218,.T.);
#239=FACE_BOUND('',#219,.T.);
#240=FACE_BOUND('',#220,.T.);
#241=FACE_BOUND('',#221,.T.);
#242=FACE_BOUND('',#222,.T.);
#243=FACE_BOUND('',#223,.T.);
#244=FACE_BOUND('',#224,.T.);
#245=FACE_BOUND('',#225,.T.);
#246=PLANE('',#279);
#247=PLANE('',#288);
#248=PLANE('',#291);
#249=PLANE('',#300);
#250=PLANE('',#303);
#251=PLANE('',#304);
#252=ADVANCED_FACE('',(#226,#227),#246,.F.);
#253=ADVANCED_FACE('',(#228),#22,.T.);
#254=ADVANCED_FACE('',(#229),#23,.F.);
#255=ADVANCED_FACE('',(#230,#231),#247,.F.);
#256=ADVANCED_FACE('',(#232,#233),#248,.F.);
#257=ADVANCED_FACE('',(#234),#24,.T.);
#258=ADVANCED_FACE('',(#235),#25,.F.);
#259=ADVANCED_FACE('',(#236,#237),#249,.F.);
#260=ADVANCED_FACE('',(#238),#250,.T.);
#261=ADVANCED_FACE('',(#239),#251,.F.);
#262=ADVANCED_FACE('',(#240,#241),#26,.F.);
#263=ADVANCED_FACE('',(#242,#243),#27,.F.);
#264=ADVANCED_FACE('',(#244),#28,.T.);
#265=ADVANCED_FACE('',(#245),#29,.T.);
#266=CLOSED_SHELL('',(#252,#253,#254,#255,#256,#257,#258,#259,#260,#261,
#262,#263,#264,#265));
#267=STYLED_ITEM('',(#268),#275);
#268=PRESENTATION_STYLE_ASSIGNMENT((#269));
#269=SURFACE_STYLE_USAGE(.BOTH.,#270);
#270=SURFACE_SIDE_STYLE('',(#271));
#271=SURFACE_STYLE_FILL_AREA(#272);
#272=FILL_AREA_STYLE('',(#273));
#273=FILL_AREA_STYLE_COLOUR('',#274);
#274=COLOUR_RGB('',0.645180702209473,0.678915679454803,0.699999988079071);
#275=MANIFOLD_SOLID_BREP('',#266);
#276=SHAPE_DEFINITION_REPRESENTATION(#468,#277);
#277=SHAPE_REPRESENTATION('500912500',(#278),#463);
#278=AXIS2_PLACEMENT_3D('',#389,#309,#310);
#279=AXIS2_PLACEMENT_3D('',#390,#311,#312);
#280=AXIS2_PLACEMENT_3D('',#391,#313,#314);
#281=AXIS2_PLACEMENT_3D('',#396,#316,#317);
#282=AXIS2_PLACEMENT_3D('',#401,#320,#321);
#283=AXIS2_PLACEMENT_3D('',#402,#322,#323);
#284=AXIS2_PLACEMENT_3D('',#406,#325,#326);
#285=AXIS2_PLACEMENT_3D('',#407,#327,#328);
#286=AXIS2_PLACEMENT_3D('',#408,#329,#330);
#287=AXIS2_PLACEMENT_3D('',#412,#332,#333);
#288=AXIS2_PLACEMENT_3D('',#413,#334,#335);
#289=AXIS2_PLACEMENT_3D('',#414,#336,#337);
#290=AXIS2_PLACEMENT_3D('',#418,#339,#340);
#291=AXIS2_PLACEMENT_3D('',#421,#342,#343);
#292=AXIS2_PLACEMENT_3D('',#422,#344,#345);
#293=AXIS2_PLACEMENT_3D('',#424,#346,#347);
#294=AXIS2_PLACEMENT_3D('',#432,#351,#352);
#295=AXIS2_PLACEMENT_3D('',#433,#353,#354);
#296=AXIS2_PLACEMENT_3D('',#437,#356,#357);
#297=AXIS2_PLACEMENT_3D('',#438,#358,#359);
#298=AXIS2_PLACEMENT_3D('',#439,#360,#361);
#299=AXIS2_PLACEMENT_3D('',#443,#363,#364);
#300=AXIS2_PLACEMENT_3D('',#444,#365,#366);
#301=AXIS2_PLACEMENT_3D('',#445,#367,#368);
#302=AXIS2_PLACEMENT_3D('',#447,#369,#370);
#303=AXIS2_PLACEMENT_3D('',#452,#373,#374);
#304=AXIS2_PLACEMENT_3D('',#455,#377,#378);
#305=AXIS2_PLACEMENT_3D('',#458,#381,#382);
#306=AXIS2_PLACEMENT_3D('',#459,#383,#384);
#307=AXIS2_PLACEMENT_3D('',#460,#385,#386);
#308=AXIS2_PLACEMENT_3D('',#461,#387,#388);
#309=DIRECTION('',(0.,0.,1.));
#310=DIRECTION('',(1.,0.,0.));
#311=DIRECTION('',(0.,0.,1.));
#312=DIRECTION('',(1.,0.,0.));
#313=DIRECTION('',(0.,0.,1.));
#314=DIRECTION('',(1.,0.,0.));
#315=DIRECTION('',(1.,0.,0.));
#316=DIRECTION('',(0.,0.,1.));
#317=DIRECTION('',(1.,0.,0.));
#318=DIRECTION('',(1.,0.,0.));
#319=DIRECTION('',(0.,1.,0.));
#320=DIRECTION('',(0.,1.,0.));
#321=DIRECTION('',(0.,0.,1.));
#322=DIRECTION('',(0.,-1.,0.));
#323=DIRECTION('',(-1.,0.,0.));
#324=DIRECTION('',(0.,1.,0.));
#325=DIRECTION('',(0.,-1.,0.));
#326=DIRECTION('',(-1.,0.,0.));
#327=DIRECTION('',(0.,1.,0.));
#328=DIRECTION('',(0.,0.,1.));
#329=DIRECTION('',(0.,1.,0.));
#330=DIRECTION('',(1.,0.,0.));
#331=DIRECTION('',(0.,1.,0.));
#332=DIRECTION('',(0.,1.,0.));
#333=DIRECTION('',(1.,0.,0.));
#334=DIRECTION('',(-0.307560130921054,0.,-0.95152864689815));
#335=DIRECTION('',(-0.95152864689815,0.,0.307560130921054));
#336=DIRECTION('',(0.307560130921054,0.,0.95152864689815));
#337=DIRECTION('',(-0.95152864689815,0.,0.307560130921055));
#338=DIRECTION('',(-0.95152864689815,0.,0.307560130921054));
#339=DIRECTION('',(-0.307560130921054,0.,-0.95152864689815));
#340=DIRECTION('',(-0.95152864689815,0.,0.307560130921054));
#341=DIRECTION('',(-0.95152864689815,0.,0.307560130921054));
#342=DIRECTION('',(0.307560130921054,0.,0.95152864689815));
#343=DIRECTION('',(0.95152864689815,0.,-0.307560130921054));
#344=DIRECTION('',(0.307560130921054,0.,0.95152864689815));
#345=DIRECTION('',(0.95152864689815,0.,-0.307560130921054));
#346=DIRECTION('',(0.307560130921054,0.,0.95152864689815));
#347=DIRECTION('',(-0.95152864689815,0.,0.307560130921054));
#348=DIRECTION('',(0.95152864689815,0.,-0.307560130921054));
#349=DIRECTION('',(0.,1.,0.));
#350=DIRECTION('',(0.95152864689815,0.,-0.307560130921054));
#351=DIRECTION('',(0.,1.,0.));
#352=DIRECTION('',(0.,0.,1.));
#353=DIRECTION('',(0.,-1.,0.));
#354=DIRECTION('',(1.,0.,0.));
#355=DIRECTION('',(0.,1.,0.));
#356=DIRECTION('',(0.,-1.,0.));
#357=DIRECTION('',(1.,0.,0.));
#358=DIRECTION('',(0.,1.,0.));
#359=DIRECTION('',(0.,0.,1.));
#360=DIRECTION('',(0.,1.,0.));
#361=DIRECTION('',(-1.,0.,0.));
#362=DIRECTION('',(0.,1.,0.));
#363=DIRECTION('',(0.,1.,0.));
#364=DIRECTION('',(-1.,0.,0.));
#365=DIRECTION('',(2.27058046593823E-17,0.,-1.));
#366=DIRECTION('',(-1.,0.,-2.27058046593823E-17));
#367=DIRECTION('',(-2.27058046593823E-17,0.,1.));
#368=DIRECTION('',(1.,0.,2.27058046593823E-17));
#369=DIRECTION('',(2.27058046593823E-17,0.,-1.));
#370=DIRECTION('',(-1.,0.,-2.27058046593823E-17));
#371=DIRECTION('',(-1.,0.,-2.27058046593823E-17));
#372=DIRECTION('',(-1.,0.,-2.27058046593823E-17));
#373=DIRECTION('',(0.,-1.,0.));
#374=DIRECTION('',(0.,0.,-1.));
#375=DIRECTION('',(0.,0.,-1.));
#376=DIRECTION('',(0.,0.,-1.));
#377=DIRECTION('',(0.,-1.,0.));
#378=DIRECTION('',(0.,0.,-1.));
#379=DIRECTION('',(0.,0.,-1.));
#380=DIRECTION('',(0.,0.,-1.));
#381=DIRECTION('',(0.307560130921054,0.,0.95152864689815));
#382=DIRECTION('',(0.95152864689815,0.,-0.307560130921054));
#383=DIRECTION('',(-2.27058046593823E-17,0.,1.));
#384=DIRECTION('',(1.,0.,2.27058046593823E-17));
#385=DIRECTION('',(0.,0.,-1.));
#386=DIRECTION('',(-1.,0.,0.));
#387=DIRECTION('',(0.,0.,1.));
#388=DIRECTION('',(1.,0.,0.));
#389=CARTESIAN_POINT('',(0.,0.,0.));
#390=CARTESIAN_POINT('',(-9.55,-3.15,0.));
#391=CARTESIAN_POINT('',(-6.4,2.20436423846523E-16,0.));
#392=CARTESIAN_POINT('',(-4.55,2.20436423846523E-16,0.));
#393=CARTESIAN_POINT('',(-9.55,-3.15,0.));
#394=CARTESIAN_POINT('',(-6.4,-3.15,0.));
#395=CARTESIAN_POINT('',(0.,-3.15,0.));
#396=CARTESIAN_POINT('',(-6.4,0.,0.));
#397=CARTESIAN_POINT('',(-6.4,3.15,0.));
#398=CARTESIAN_POINT('',(-9.55,3.15,0.));
#399=CARTESIAN_POINT('',(0.,3.15,0.));
#400=CARTESIAN_POINT('',(0.,-3.15,0.));
#401=CARTESIAN_POINT('',(0.,-3.15,2.75));
#402=CARTESIAN_POINT('',(0.,3.15,2.75));
#403=CARTESIAN_POINT('',(-2.25915653937595,3.15,4.31802797506769));
#404=CARTESIAN_POINT('',(-2.25915653937595,-3.15,4.31802797506769));
#405=CARTESIAN_POINT('',(-2.25915653937595,-3.15,4.31802797506769));
#406=CARTESIAN_POINT('',(0.,-3.15,2.75));
#407=CARTESIAN_POINT('',(-2.34130768626235,-3.15,4.37504717416105));
#408=CARTESIAN_POINT('',(-2.34130768626235,3.15,4.37504717416105));
#409=CARTESIAN_POINT('',(-2.37206369935446,3.15,4.27989430947124));
#410=CARTESIAN_POINT('',(-2.37206369935446,-3.15,4.27989430947124));
#411=CARTESIAN_POINT('',(-2.37206369935446,-3.15,4.27989430947124));
#412=CARTESIAN_POINT('',(-2.34130768626235,-3.15,4.37504717416105));
#413=CARTESIAN_POINT('',(-2.37206369935446,-3.15,4.27989430947124));
#414=CARTESIAN_POINT('',(-5.81025686225227,-2.16840434497101E-16,5.39121254750839));
#415=CARTESIAN_POINT('',(-7.57058485901385,-2.16840434497101E-16,5.96019878971234));
#416=CARTESIAN_POINT('',(-2.37206369935446,3.15,4.27989430947124));
#417=CARTESIAN_POINT('',(-6.4,3.15,5.58183368881271));
#418=CARTESIAN_POINT('',(-6.4,0.,5.58183368881271));
#419=CARTESIAN_POINT('',(-6.4,-3.15,5.58183368881271));
#420=CARTESIAN_POINT('',(-2.37206369935446,-3.15,4.27989430947124));
#421=CARTESIAN_POINT('',(-2.67962383027551,-3.15,3.32836566257309));
#422=CARTESIAN_POINT('',(-6.11781699317332,-2.16840434497101E-16,4.43968390061024));
#423=CARTESIAN_POINT('',(-4.35748899641175,-2.16840434497101E-16,3.87069765840629));
#424=CARTESIAN_POINT('',(-6.4,0.,4.53089318033737));
#425=CARTESIAN_POINT('',(-6.4,-3.15,4.53089318033737));
#426=CARTESIAN_POINT('',(-6.4,3.15,4.53089318033737));
#427=CARTESIAN_POINT('',(-2.67962383027551,3.15,3.32836566257309));
#428=CARTESIAN_POINT('',(-2.67962383027551,3.15,3.32836566257309));
#429=CARTESIAN_POINT('',(-2.67962383027551,-3.15,3.32836566257309));
#430=CARTESIAN_POINT('',(-2.67962383027551,-3.15,3.32836566257309));
#431=CARTESIAN_POINT('',(-2.67962383027551,-3.15,3.32836566257309));
#432=CARTESIAN_POINT('',(-2.34130768626235,-3.15,4.37504717416105));
#433=CARTESIAN_POINT('',(-2.34130768626235,3.15,4.37504717416105));
#434=CARTESIAN_POINT('',(-1.43764507051197,3.15,3.74783598413398));
#435=CARTESIAN_POINT('',(-1.43764507051197,-3.15,3.74783598413398));
#436=CARTESIAN_POINT('',(-1.43764507051197,-3.15,3.74783598413398));
#437=CARTESIAN_POINT('',(-2.34130768626235,-3.15,4.37504717416105));
#438=CARTESIAN_POINT('',(0.,-3.15,2.75));
#439=CARTESIAN_POINT('',(0.,3.15,2.75));
#440=CARTESIAN_POINT('',(3.2146978477618E-16,3.15,1.));
#441=CARTESIAN_POINT('',(3.2146978477618E-16,-3.15,1.));
#442=CARTESIAN_POINT('',(3.2146978477618E-16,-3.15,1.));
#443=CARTESIAN_POINT('',(0.,-3.15,2.75));
#444=CARTESIAN_POINT('',(-9.55,-3.15,1.));
#445=CARTESIAN_POINT('',(-6.4,2.20436423846523E-16,1.));
#446=CARTESIAN_POINT('',(-4.55,2.20436423846523E-16,1.));
#447=CARTESIAN_POINT('',(-6.4,0.,1.));
#448=CARTESIAN_POINT('',(-6.4,3.15,1.));
#449=CARTESIAN_POINT('',(-6.4,-3.15,1.));
#450=CARTESIAN_POINT('',(-9.55,-3.15,1.));
#451=CARTESIAN_POINT('',(-9.55,3.15,1.));
#452=CARTESIAN_POINT('',(0.,-3.15,2.75));
#453=CARTESIAN_POINT('',(-6.4,-3.15,0.));
#454=CARTESIAN_POINT('',(-6.4,-3.15,5.54905949152465));
#455=CARTESIAN_POINT('',(0.,3.15,2.75));
#456=CARTESIAN_POINT('',(-6.4,3.15,2.75));
#457=CARTESIAN_POINT('',(-6.4,3.15,2.75));
#458=CARTESIAN_POINT('',(-10.5204476368771,-2.16840434497101E-16,-9.18116209997578));
#459=CARTESIAN_POINT('',(-6.4,2.20436423846523E-16,-14.3146988217203));
#460=CARTESIAN_POINT('',(-6.4,0.,1.));
#461=CARTESIAN_POINT('',(-6.4,0.,2.75));
#462=MECHANICAL_DESIGN_GEOMETRIC_PRESENTATION_REPRESENTATION('',(#267),
#463);
#463=(
GEOMETRIC_REPRESENTATION_CONTEXT(3)
GLOBAL_UNCERTAINTY_ASSIGNED_CONTEXT((#464))
GLOBAL_UNIT_ASSIGNED_CONTEXT((#467,#466,#465))
REPRESENTATION_CONTEXT('500912500','TOP_LEVEL_ASSEMBLY_PART')
);
#464=UNCERTAINTY_MEASURE_WITH_UNIT(LENGTH_MEASURE(0.005),#467,
'DISTANCE_ACCURACY_VALUE','Maximum Tolerance applied to model');
#465=(
NAMED_UNIT(*)
SI_UNIT($,.STERADIAN.)
SOLID_ANGLE_UNIT()
);
#466=(
NAMED_UNIT(*)
PLANE_ANGLE_UNIT()
SI_UNIT($,.RADIAN.)
);
#467=(
LENGTH_UNIT()
NAMED_UNIT(*)
SI_UNIT(.MILLI.,.METRE.)
);
#468=PRODUCT_DEFINITION_SHAPE('','',#469);
#469=PRODUCT_DEFINITION('','',#471,#470);
#470=PRODUCT_DEFINITION_CONTEXT('',#477,'design');
#471=PRODUCT_DEFINITION_FORMATION_WITH_SPECIFIED_SOURCE('','',#473,
 .NOT_KNOWN.);
#472=PRODUCT_RELATED_PRODUCT_CATEGORY('','',(#473));
#473=PRODUCT('500912500','500912500','500912500',(#475));
#474=PRODUCT_CATEGORY('','');
#475=PRODUCT_CONTEXT('',#477,'mechanical');
#476=APPLICATION_PROTOCOL_DEFINITION('international standard',
'automotive_design',2010,#477);
#477=APPLICATION_CONTEXT(
'core data for automotive mechanical design processes');
ENDSEC;
END-ISO-10303-21;
