ISO-10303-21;
HEADER;
/* Generated by software containing ST-Developer
 * from STEP Tools, Inc. (www.steptools.com) 
 */
/* OPTION: strings as raw bytes, not using required /X/ escapes */

FILE_DESCRIPTION(
/* description */ ('Unknown'),
/* implementation_level */ '2;1');

FILE_NAME(
/* name */ '97730406332',
/* time_stamp */ '2018-08-14T10:23:25+02:00',
/* author */ ('Unknown'),
/* organization */ ('Unknown'),
/* preprocessor_version */ 'ST-DEVELOPER v16.7',
/* originating_system */ 'DEX',
/* authorisation */ $);

FILE_SCHEMA (('AUTOMOTIVE_DESIGN {1 0 10303 214 3 1 1}'));
ENDSEC;

DATA;
#10=PROPERTY_DEFINITION_REPRESENTATION(#14,#12);
#11=PROPERTY_DEFINITION_REPRESENTATION(#15,#13);
#12=REPRESENTATION('',(#16),#264);
#13=REPRESENTATION('',(#17),#264);
#14=PROPERTY_DEFINITION('pmi validation property','',#269);
#15=PROPERTY_DEFINITION('pmi validation property','',#269);
#16=VALUE_REPRESENTATION_ITEM('number of annotations',COUNT_MEASURE(0.));
#17=VALUE_REPRESENTATION_ITEM('number of views',COUNT_MEASURE(0.));
#18=SHAPE_REPRESENTATION_RELATIONSHIP('','',#181,#19);
#19=ADVANCED_BREP_SHAPE_REPRESENTATION('',(#179),#264);
#20=VERTEX_LOOP('',#57);
#21=CONICAL_SURFACE('',#195,0.8105,0.785398163397448);
#22=CONICAL_SURFACE('',#196,0.6105,1.02974425867665);
#23=PLANE('',#186);
#24=PLANE('',#191);
#25=PLANE('',#199);
#26=ORIENTED_EDGE('',*,*,#42,.T.);
#27=ORIENTED_EDGE('',*,*,#43,.T.);
#28=ORIENTED_EDGE('',*,*,#44,.T.);
#29=ORIENTED_EDGE('',*,*,#45,.T.);
#30=ORIENTED_EDGE('',*,*,#46,.T.);
#31=ORIENTED_EDGE('',*,*,#45,.F.);
#32=ORIENTED_EDGE('',*,*,#47,.T.);
#33=ORIENTED_EDGE('',*,*,#46,.F.);
#34=ORIENTED_EDGE('',*,*,#43,.F.);
#35=ORIENTED_EDGE('',*,*,#48,.T.);
#36=ORIENTED_EDGE('',*,*,#48,.F.);
#37=ORIENTED_EDGE('',*,*,#47,.F.);
#38=ORIENTED_EDGE('',*,*,#42,.F.);
#39=ORIENTED_EDGE('',*,*,#49,.T.);
#40=ORIENTED_EDGE('',*,*,#44,.F.);
#41=ORIENTED_EDGE('',*,*,#49,.F.);
#42=EDGE_CURVE('',#50,#50,#59,.T.);
#43=EDGE_CURVE('',#51,#51,#60,.T.);
#44=EDGE_CURVE('',#52,#52,#61,.T.);
#45=EDGE_CURVE('',#53,#53,#62,.T.);
#46=EDGE_CURVE('',#54,#54,#63,.T.);
#47=EDGE_CURVE('',#55,#55,#64,.T.);
#48=EDGE_CURVE('',#56,#56,#65,.T.);
#49=EDGE_CURVE('',#58,#58,#66,.T.);
#50=VERTEX_POINT('',#239);
#51=VERTEX_POINT('',#241);
#52=VERTEX_POINT('',#244);
#53=VERTEX_POINT('',#246);
#54=VERTEX_POINT('',#249);
#55=VERTEX_POINT('',#252);
#56=VERTEX_POINT('',#255);
#57=VERTEX_POINT('',#258);
#58=VERTEX_POINT('',#261);
#59=CIRCLE('',#184,0.6105);
#60=CIRCLE('',#185,0.6105);
#61=CIRCLE('',#187,0.4);
#62=CIRCLE('',#188,1.65);
#63=CIRCLE('',#190,1.65);
#64=CIRCLE('',#192,0.8105);
#65=CIRCLE('',#194,0.6105);
#66=CIRCLE('',#198,0.4);
#67=EDGE_LOOP('',(#26));
#68=EDGE_LOOP('',(#27));
#69=EDGE_LOOP('',(#28));
#70=EDGE_LOOP('',(#29));
#71=EDGE_LOOP('',(#30));
#72=EDGE_LOOP('',(#31));
#73=EDGE_LOOP('',(#32));
#74=EDGE_LOOP('',(#33));
#75=EDGE_LOOP('',(#34));
#76=EDGE_LOOP('',(#35));
#77=EDGE_LOOP('',(#36));
#78=EDGE_LOOP('',(#37));
#79=EDGE_LOOP('',(#38));
#80=EDGE_LOOP('',(#39));
#81=EDGE_LOOP('',(#40));
#82=EDGE_LOOP('',(#41));
#83=FACE_BOUND('',#67,.T.);
#84=FACE_BOUND('',#68,.T.);
#85=FACE_BOUND('',#69,.T.);
#86=FACE_BOUND('',#70,.T.);
#87=FACE_BOUND('',#71,.T.);
#88=FACE_BOUND('',#72,.T.);
#89=FACE_BOUND('',#73,.T.);
#90=FACE_BOUND('',#74,.T.);
#91=FACE_BOUND('',#75,.T.);
#92=FACE_BOUND('',#76,.T.);
#93=FACE_BOUND('',#77,.T.);
#94=FACE_BOUND('',#78,.T.);
#95=FACE_BOUND('',#79,.T.);
#96=FACE_BOUND('',#20,.T.);
#97=FACE_BOUND('',#80,.T.);
#98=FACE_BOUND('',#81,.T.);
#99=FACE_BOUND('',#82,.T.);
#100=CYLINDRICAL_SURFACE('',#183,0.6105);
#101=CYLINDRICAL_SURFACE('',#189,1.65);
#102=CYLINDRICAL_SURFACE('',#193,0.6105);
#103=CYLINDRICAL_SURFACE('',#197,0.4);
#104=STYLED_ITEM('',(#113),#169);
#105=STYLED_ITEM('',(#114),#170);
#106=STYLED_ITEM('',(#115),#171);
#107=STYLED_ITEM('',(#116),#172);
#108=STYLED_ITEM('',(#117),#173);
#109=STYLED_ITEM('',(#118),#174);
#110=STYLED_ITEM('',(#119),#175);
#111=STYLED_ITEM('',(#120),#176);
#112=STYLED_ITEM('',(#121),#177);
#113=PRESENTATION_STYLE_ASSIGNMENT((#122));
#114=PRESENTATION_STYLE_ASSIGNMENT((#123));
#115=PRESENTATION_STYLE_ASSIGNMENT((#124));
#116=PRESENTATION_STYLE_ASSIGNMENT((#125));
#117=PRESENTATION_STYLE_ASSIGNMENT((#126));
#118=PRESENTATION_STYLE_ASSIGNMENT((#127));
#119=PRESENTATION_STYLE_ASSIGNMENT((#128));
#120=PRESENTATION_STYLE_ASSIGNMENT((#129));
#121=PRESENTATION_STYLE_ASSIGNMENT((#130));
#122=SURFACE_STYLE_USAGE(.BOTH.,#131);
#123=SURFACE_STYLE_USAGE(.BOTH.,#132);
#124=SURFACE_STYLE_USAGE(.BOTH.,#133);
#125=SURFACE_STYLE_USAGE(.BOTH.,#134);
#126=SURFACE_STYLE_USAGE(.BOTH.,#135);
#127=SURFACE_STYLE_USAGE(.BOTH.,#136);
#128=SURFACE_STYLE_USAGE(.BOTH.,#137);
#129=SURFACE_STYLE_USAGE(.BOTH.,#138);
#130=SURFACE_STYLE_USAGE(.BOTH.,#139);
#131=SURFACE_SIDE_STYLE('',(#140));
#132=SURFACE_SIDE_STYLE('',(#141));
#133=SURFACE_SIDE_STYLE('',(#142));
#134=SURFACE_SIDE_STYLE('',(#143));
#135=SURFACE_SIDE_STYLE('',(#144));
#136=SURFACE_SIDE_STYLE('',(#145));
#137=SURFACE_SIDE_STYLE('',(#146));
#138=SURFACE_SIDE_STYLE('',(#147));
#139=SURFACE_SIDE_STYLE('',(#148));
#140=SURFACE_STYLE_FILL_AREA(#149);
#141=SURFACE_STYLE_FILL_AREA(#150);
#142=SURFACE_STYLE_FILL_AREA(#151);
#143=SURFACE_STYLE_FILL_AREA(#152);
#144=SURFACE_STYLE_FILL_AREA(#153);
#145=SURFACE_STYLE_FILL_AREA(#154);
#146=SURFACE_STYLE_FILL_AREA(#155);
#147=SURFACE_STYLE_FILL_AREA(#156);
#148=SURFACE_STYLE_FILL_AREA(#157);
#149=FILL_AREA_STYLE('',(#158));
#150=FILL_AREA_STYLE('',(#159));
#151=FILL_AREA_STYLE('',(#160));
#152=FILL_AREA_STYLE('',(#161));
#153=FILL_AREA_STYLE('',(#162));
#154=FILL_AREA_STYLE('',(#163));
#155=FILL_AREA_STYLE('',(#164));
#156=FILL_AREA_STYLE('',(#165));
#157=FILL_AREA_STYLE('',(#166));
#158=FILL_AREA_STYLE_COLOUR('',#167);
#159=FILL_AREA_STYLE_COLOUR('',#167);
#160=FILL_AREA_STYLE_COLOUR('',#167);
#161=FILL_AREA_STYLE_COLOUR('',#167);
#162=FILL_AREA_STYLE_COLOUR('',#168);
#163=FILL_AREA_STYLE_COLOUR('',#167);
#164=FILL_AREA_STYLE_COLOUR('',#167);
#165=FILL_AREA_STYLE_COLOUR('',#167);
#166=FILL_AREA_STYLE_COLOUR('',#167);
#167=COLOUR_RGB('',0.506983280181885,0.531564235687256,0.550000011920929);
#168=COLOUR_RGB('',0.1875,0.75,0.581249892711639);
#169=ADVANCED_FACE('',(#83,#84),#100,.F.);
#170=ADVANCED_FACE('',(#85,#86),#23,.T.);
#171=ADVANCED_FACE('',(#87,#88),#101,.T.);
#172=ADVANCED_FACE('',(#89,#90),#24,.T.);
#173=ADVANCED_FACE('',(#91,#92),#102,.F.);
#174=ADVANCED_FACE('',(#93,#94),#21,.F.);
#175=ADVANCED_FACE('',(#95,#96),#22,.F.);
#176=ADVANCED_FACE('',(#97,#98),#103,.T.);
#177=ADVANCED_FACE('',(#99),#25,.F.);
#178=CLOSED_SHELL('',(#169,#170,#171,#172,#173,#174,#175,#176,#177));
#179=MANIFOLD_SOLID_BREP('',#178);
#180=SHAPE_DEFINITION_REPRESENTATION(#269,#181);
#181=SHAPE_REPRESENTATION('97730406332',(#182),#264);
#182=AXIS2_PLACEMENT_3D('',#236,#200,#201);
#183=AXIS2_PLACEMENT_3D('',#237,#202,#203);
#184=AXIS2_PLACEMENT_3D('',#238,#204,#205);
#185=AXIS2_PLACEMENT_3D('',#240,#206,#207);
#186=AXIS2_PLACEMENT_3D('',#242,#208,#209);
#187=AXIS2_PLACEMENT_3D('',#243,#210,#211);
#188=AXIS2_PLACEMENT_3D('',#245,#212,#213);
#189=AXIS2_PLACEMENT_3D('',#247,#214,#215);
#190=AXIS2_PLACEMENT_3D('',#248,#216,#217);
#191=AXIS2_PLACEMENT_3D('',#250,#218,#219);
#192=AXIS2_PLACEMENT_3D('',#251,#220,#221);
#193=AXIS2_PLACEMENT_3D('',#253,#222,#223);
#194=AXIS2_PLACEMENT_3D('',#254,#224,#225);
#195=AXIS2_PLACEMENT_3D('',#256,#226,#227);
#196=AXIS2_PLACEMENT_3D('',#257,#228,#229);
#197=AXIS2_PLACEMENT_3D('',#259,#230,#231);
#198=AXIS2_PLACEMENT_3D('',#260,#232,#233);
#199=AXIS2_PLACEMENT_3D('',#262,#234,#235);
#200=DIRECTION('',(0.,0.,1.));
#201=DIRECTION('',(1.,0.,0.));
#202=DIRECTION('',(0.,0.,-1.));
#203=DIRECTION('',(0.,-1.,0.));
#204=DIRECTION('',(0.,0.,-1.));
#205=DIRECTION('',(0.,1.,0.));
#206=DIRECTION('',(0.,0.,1.));
#207=DIRECTION('',(0.,-1.,0.));
#208=DIRECTION('',(0.,0.,-1.));
#209=DIRECTION('',(-1.,0.,0.));
#210=DIRECTION('',(0.,0.,1.));
#211=DIRECTION('',(1.,0.,0.));
#212=DIRECTION('',(0.,0.,-1.));
#213=DIRECTION('',(-1.,0.,0.));
#214=DIRECTION('',(0.,0.,-1.));
#215=DIRECTION('',(-1.,0.,0.));
#216=DIRECTION('',(0.,0.,-1.));
#217=DIRECTION('',(-1.,0.,0.));
#218=DIRECTION('',(0.,0.,1.));
#219=DIRECTION('',(1.,0.,0.));
#220=DIRECTION('',(0.,0.,-1.));
#221=DIRECTION('',(1.,0.,0.));
#222=DIRECTION('',(0.,0.,-1.));
#223=DIRECTION('',(0.,-1.,0.));
#224=DIRECTION('',(0.,0.,1.));
#225=DIRECTION('',(1.,0.,0.));
#226=DIRECTION('',(0.,0.,1.));
#227=DIRECTION('',(1.,0.,0.));
#228=DIRECTION('',(0.,0.,1.));
#229=DIRECTION('',(0.,1.,0.));
#230=DIRECTION('',(0.,0.,1.));
#231=DIRECTION('',(1.,0.,0.));
#232=DIRECTION('',(0.,0.,1.));
#233=DIRECTION('',(1.,0.,0.));
#234=DIRECTION('',(0.,0.,1.));
#235=DIRECTION('',(1.,0.,0.));
#236=CARTESIAN_POINT('',(0.,0.,0.));
#237=CARTESIAN_POINT('',(0.,0.,4.));
#238=CARTESIAN_POINT('',(0.,0.,0.866825407916326));
#239=CARTESIAN_POINT('',(0.,0.6105,0.866825407916326));
#240=CARTESIAN_POINT('',(0.,0.,2.));
#241=CARTESIAN_POINT('',(0.,-0.6105,2.));
#242=CARTESIAN_POINT('',(0.,0.,-1.01643953670516E-16));
#243=CARTESIAN_POINT('',(0.,0.,-1.01643953670516E-16));
#244=CARTESIAN_POINT('',(0.4,0.,-1.01643953670516E-16));
#245=CARTESIAN_POINT('',(0.,0.,0.));
#246=CARTESIAN_POINT('',(-1.65,0.,0.));
#247=CARTESIAN_POINT('',(0.,0.,4.));
#248=CARTESIAN_POINT('',(0.,0.,4.));
#249=CARTESIAN_POINT('',(-1.65,0.,4.));
#250=CARTESIAN_POINT('',(-1.65,0.,4.));
#251=CARTESIAN_POINT('',(0.,0.,4.));
#252=CARTESIAN_POINT('',(0.8105,0.,4.));
#253=CARTESIAN_POINT('',(0.,0.,4.));
#254=CARTESIAN_POINT('',(0.,0.,3.8));
#255=CARTESIAN_POINT('',(0.6105,0.,3.8));
#256=CARTESIAN_POINT('',(0.,0.,4.));
#257=CARTESIAN_POINT('',(0.,0.,0.866825407916326));
#258=CARTESIAN_POINT('',(0.,0.,0.5));
#259=CARTESIAN_POINT('',(0.,0.,-0.5));
#260=CARTESIAN_POINT('',(0.,0.,-0.5));
#261=CARTESIAN_POINT('',(0.4,0.,-0.5));
#262=CARTESIAN_POINT('',(0.,0.,-0.5));
#263=MECHANICAL_DESIGN_GEOMETRIC_PRESENTATION_REPRESENTATION('',(#104,#105,
#106,#107,#108,#109,#110,#111,#112),#264);
#264=(
GEOMETRIC_REPRESENTATION_CONTEXT(3)
GLOBAL_UNCERTAINTY_ASSIGNED_CONTEXT((#265))
GLOBAL_UNIT_ASSIGNED_CONTEXT((#268,#267,#266))
REPRESENTATION_CONTEXT('97730406332','TOP_LEVEL_ASSEMBLY_PART')
);
#265=UNCERTAINTY_MEASURE_WITH_UNIT(LENGTH_MEASURE(0.005),#268,
'DISTANCE_ACCURACY_VALUE','Maximum Tolerance applied to model');
#266=(
NAMED_UNIT(*)
SI_UNIT($,.STERADIAN.)
SOLID_ANGLE_UNIT()
);
#267=(
NAMED_UNIT(*)
PLANE_ANGLE_UNIT()
SI_UNIT($,.RADIAN.)
);
#268=(
LENGTH_UNIT()
NAMED_UNIT(*)
SI_UNIT(.MILLI.,.METRE.)
);
#269=PRODUCT_DEFINITION_SHAPE('','',#270);
#270=PRODUCT_DEFINITION('','',#272,#271);
#271=PRODUCT_DEFINITION_CONTEXT('',#278,'design');
#272=PRODUCT_DEFINITION_FORMATION_WITH_SPECIFIED_SOURCE('','',#274,
 .NOT_KNOWN.);
#273=PRODUCT_RELATED_PRODUCT_CATEGORY('','',(#274));
#274=PRODUCT('97730406332','97730406332','97730406332',(#276));
#275=PRODUCT_CATEGORY('','');
#276=PRODUCT_CONTEXT('',#278,'mechanical');
#277=APPLICATION_PROTOCOL_DEFINITION('international standard',
'automotive_design',2010,#278);
#278=APPLICATION_CONTEXT(
'core data for automotive mechanical design processes');
ENDSEC;
END-ISO-10303-21;
