ISO-10303-21;
HEADER;
/* Generated by software containing ST-Developer
 * from STEP Tools, Inc. (www.steptools.com) 
 */
/* OPTION: strings as raw bytes, not using required /X/ escapes */

FILE_DESCRIPTION(
/* description */ ('Unknown'),
/* implementation_level */ '2;1');

FILE_NAME(
/* name */ '500918500',
/* time_stamp */ '2019-01-04T13:51:19+01:00',
/* author */ ('Unknown'),
/* organization */ ('Unknown'),
/* preprocessor_version */ 'ST-DEVELOPER v16.7',
/* originating_system */ 'DEX',
/* authorisation */ $);

FILE_SCHEMA (('AUTOMOTIVE_DESIGN {1 0 10303 214 3 1 1}'));
ENDSEC;

DATA;
#10=PROPERTY_DEFINITION_REPRESENTATION(#14,#12);
#11=PROPERTY_DEFINITION_REPRESENTATION(#15,#13);
#12=REPRESENTATION('',(#16),#597);
#13=REPRESENTATION('',(#17),#597);
#14=PROPERTY_DEFINITION('pmi validation property','',#602);
#15=PROPERTY_DEFINITION('pmi validation property','',#602);
#16=VALUE_REPRESENTATION_ITEM('number of annotations',COUNT_MEASURE(0.));
#17=VALUE_REPRESENTATION_ITEM('number of views',COUNT_MEASURE(0.));
#18=SHAPE_REPRESENTATION_RELATIONSHIP('','',#341,#19);
#19=ADVANCED_BREP_SHAPE_REPRESENTATION('',(#339),#597);
#20=DEGENERATE_TOROIDAL_SURFACE('',#379,0.0999999999999925,1.6,.T.);
#21=DEGENERATE_TOROIDAL_SURFACE('',#389,0.0999999999999925,1.6,.T.);
#22=TOROIDAL_SURFACE('',#375,15.05,1.6);
#23=TOROIDAL_SURFACE('',#377,4.85,1.6);
#24=TOROIDAL_SURFACE('',#385,15.05,1.6);
#25=TOROIDAL_SURFACE('',#387,4.85,1.6);
#26=CYLINDRICAL_SURFACE('',#347,15.05);
#27=CYLINDRICAL_SURFACE('',#350,0.1);
#28=CYLINDRICAL_SURFACE('',#359,1.69999999999999);
#29=CYLINDRICAL_SURFACE('',#362,13.45);
#30=CYLINDRICAL_SURFACE('',#369,2.7);
#31=CYLINDRICAL_SURFACE('',#370,2.7);
#32=CYLINDRICAL_SURFACE('',#371,2.7);
#33=CYLINDRICAL_SURFACE('',#372,1.6);
#34=CYLINDRICAL_SURFACE('',#381,1.6);
#35=CYLINDRICAL_SURFACE('',#383,1.6);
#36=CYLINDRICAL_SURFACE('',#391,1.6);
#37=LINE('',#512,#51);
#38=LINE('',#517,#52);
#39=LINE('',#519,#53);
#40=LINE('',#523,#54);
#41=LINE('',#529,#55);
#42=LINE('',#538,#56);
#43=LINE('',#539,#57);
#44=LINE('',#543,#58);
#45=LINE('',#546,#59);
#46=LINE('',#550,#60);
#47=LINE('',#552,#61);
#48=LINE('',#558,#62);
#49=LINE('',#571,#63);
#50=LINE('',#572,#64);
#51=VECTOR('',#400,1000.);
#52=VECTOR('',#403,1000.);
#53=VECTOR('',#404,1000.);
#54=VECTOR('',#409,1000.);
#55=VECTOR('',#416,1000.);
#56=VECTOR('',#425,1000.);
#57=VECTOR('',#426,1000.);
#58=VECTOR('',#431,1000.);
#59=VECTOR('',#432,1000.);
#60=VECTOR('',#435,1000.);
#61=VECTOR('',#438,1000.);
#62=VECTOR('',#445,1000.);
#63=VECTOR('',#458,1000.);
#64=VECTOR('',#459,1000.);
#65=ORIENTED_EDGE('',*,*,#149,.T.);
#66=ORIENTED_EDGE('',*,*,#150,.T.);
#67=ORIENTED_EDGE('',*,*,#151,.F.);
#68=ORIENTED_EDGE('',*,*,#152,.T.);
#69=ORIENTED_EDGE('',*,*,#153,.T.);
#70=ORIENTED_EDGE('',*,*,#154,.F.);
#71=ORIENTED_EDGE('',*,*,#155,.T.);
#72=ORIENTED_EDGE('',*,*,#156,.F.);
#73=ORIENTED_EDGE('',*,*,#157,.F.);
#74=ORIENTED_EDGE('',*,*,#154,.T.);
#75=ORIENTED_EDGE('',*,*,#158,.T.);
#76=ORIENTED_EDGE('',*,*,#159,.F.);
#77=ORIENTED_EDGE('',*,*,#160,.F.);
#78=ORIENTED_EDGE('',*,*,#156,.T.);
#79=ORIENTED_EDGE('',*,*,#161,.F.);
#80=ORIENTED_EDGE('',*,*,#162,.T.);
#81=ORIENTED_EDGE('',*,*,#163,.F.);
#82=ORIENTED_EDGE('',*,*,#159,.T.);
#83=ORIENTED_EDGE('',*,*,#164,.T.);
#84=ORIENTED_EDGE('',*,*,#165,.T.);
#85=ORIENTED_EDGE('',*,*,#166,.F.);
#86=ORIENTED_EDGE('',*,*,#167,.T.);
#87=ORIENTED_EDGE('',*,*,#168,.T.);
#88=ORIENTED_EDGE('',*,*,#169,.T.);
#89=ORIENTED_EDGE('',*,*,#170,.F.);
#90=ORIENTED_EDGE('',*,*,#171,.T.);
#91=ORIENTED_EDGE('',*,*,#166,.T.);
#92=ORIENTED_EDGE('',*,*,#172,.T.);
#93=ORIENTED_EDGE('',*,*,#173,.F.);
#94=ORIENTED_EDGE('',*,*,#174,.T.);
#95=ORIENTED_EDGE('',*,*,#170,.T.);
#96=ORIENTED_EDGE('',*,*,#175,.T.);
#97=ORIENTED_EDGE('',*,*,#176,.F.);
#98=ORIENTED_EDGE('',*,*,#177,.F.);
#99=ORIENTED_EDGE('',*,*,#178,.T.);
#100=ORIENTED_EDGE('',*,*,#179,.T.);
#101=ORIENTED_EDGE('',*,*,#173,.T.);
#102=ORIENTED_EDGE('',*,*,#180,.T.);
#103=ORIENTED_EDGE('',*,*,#165,.F.);
#104=ORIENTED_EDGE('',*,*,#161,.T.);
#105=ORIENTED_EDGE('',*,*,#150,.F.);
#106=ORIENTED_EDGE('',*,*,#177,.T.);
#107=ORIENTED_EDGE('',*,*,#149,.F.);
#108=ORIENTED_EDGE('',*,*,#176,.T.);
#109=ORIENTED_EDGE('',*,*,#181,.F.);
#110=ORIENTED_EDGE('',*,*,#180,.F.);
#111=ORIENTED_EDGE('',*,*,#182,.F.);
#112=ORIENTED_EDGE('',*,*,#153,.F.);
#113=ORIENTED_EDGE('',*,*,#182,.T.);
#114=ORIENTED_EDGE('',*,*,#175,.F.);
#115=ORIENTED_EDGE('',*,*,#183,.F.);
#116=ORIENTED_EDGE('',*,*,#155,.F.);
#117=ORIENTED_EDGE('',*,*,#181,.T.);
#118=ORIENTED_EDGE('',*,*,#152,.F.);
#119=ORIENTED_EDGE('',*,*,#184,.F.);
#120=ORIENTED_EDGE('',*,*,#178,.F.);
#121=ORIENTED_EDGE('',*,*,#183,.T.);
#122=ORIENTED_EDGE('',*,*,#172,.F.);
#123=ORIENTED_EDGE('',*,*,#185,.F.);
#124=ORIENTED_EDGE('',*,*,#158,.F.);
#125=ORIENTED_EDGE('',*,*,#184,.T.);
#126=ORIENTED_EDGE('',*,*,#151,.T.);
#127=ORIENTED_EDGE('',*,*,#186,.F.);
#128=ORIENTED_EDGE('',*,*,#179,.F.);
#129=ORIENTED_EDGE('',*,*,#185,.T.);
#130=ORIENTED_EDGE('',*,*,#169,.F.);
#131=ORIENTED_EDGE('',*,*,#187,.F.);
#132=ORIENTED_EDGE('',*,*,#164,.F.);
#133=ORIENTED_EDGE('',*,*,#186,.T.);
#134=ORIENTED_EDGE('',*,*,#157,.T.);
#135=ORIENTED_EDGE('',*,*,#188,.F.);
#136=ORIENTED_EDGE('',*,*,#174,.F.);
#137=ORIENTED_EDGE('',*,*,#187,.T.);
#138=ORIENTED_EDGE('',*,*,#168,.F.);
#139=ORIENTED_EDGE('',*,*,#189,.F.);
#140=ORIENTED_EDGE('',*,*,#162,.F.);
#141=ORIENTED_EDGE('',*,*,#188,.T.);
#142=ORIENTED_EDGE('',*,*,#160,.T.);
#143=ORIENTED_EDGE('',*,*,#190,.F.);
#144=ORIENTED_EDGE('',*,*,#171,.F.);
#145=ORIENTED_EDGE('',*,*,#189,.T.);
#146=ORIENTED_EDGE('',*,*,#167,.F.);
#147=ORIENTED_EDGE('',*,*,#190,.T.);
#148=ORIENTED_EDGE('',*,*,#163,.T.);
#149=EDGE_CURVE('',#191,#191,#217,.T.);
#150=EDGE_CURVE('',#192,#192,#218,.T.);
#151=EDGE_CURVE('',#193,#194,#37,.T.);
#152=EDGE_CURVE('',#193,#195,#219,.F.);
#153=EDGE_CURVE('',#195,#196,#38,.T.);
#154=EDGE_CURVE('',#194,#196,#39,.T.);
#155=EDGE_CURVE('',#196,#197,#220,.T.);
#156=EDGE_CURVE('',#198,#197,#40,.T.);
#157=EDGE_CURVE('',#194,#198,#221,.T.);
#158=EDGE_CURVE('',#197,#199,#222,.T.);
#159=EDGE_CURVE('',#200,#199,#41,.T.);
#160=EDGE_CURVE('',#198,#200,#223,.T.);
#161=EDGE_CURVE('',#201,#201,#224,.T.);
#162=EDGE_CURVE('',#202,#203,#225,.F.);
#163=EDGE_CURVE('',#200,#203,#42,.T.);
#164=EDGE_CURVE('',#199,#202,#43,.T.);
#165=EDGE_CURVE('',#204,#204,#226,.T.);
#166=EDGE_CURVE('',#205,#206,#44,.T.);
#167=EDGE_CURVE('',#205,#207,#45,.F.);
#168=EDGE_CURVE('',#207,#208,#227,.F.);
#169=EDGE_CURVE('',#208,#206,#46,.T.);
#170=EDGE_CURVE('',#209,#210,#47,.T.);
#171=EDGE_CURVE('',#209,#205,#228,.F.);
#172=EDGE_CURVE('',#206,#210,#229,.T.);
#173=EDGE_CURVE('',#211,#212,#48,.T.);
#174=EDGE_CURVE('',#211,#209,#230,.T.);
#175=EDGE_CURVE('',#210,#212,#231,.F.);
#176=EDGE_CURVE('',#213,#213,#232,.T.);
#177=EDGE_CURVE('',#214,#214,#233,.T.);
#178=EDGE_CURVE('',#215,#216,#234,.F.);
#179=EDGE_CURVE('',#216,#211,#49,.F.);
#180=EDGE_CURVE('',#212,#215,#50,.T.);
#181=EDGE_CURVE('',#215,#195,#235,.T.);
#182=EDGE_CURVE('',#196,#212,#236,.T.);
#183=EDGE_CURVE('',#197,#210,#237,.T.);
#184=EDGE_CURVE('',#216,#193,#238,.T.);
#185=EDGE_CURVE('',#199,#206,#239,.T.);
#186=EDGE_CURVE('',#211,#194,#240,.T.);
#187=EDGE_CURVE('',#202,#208,#241,.T.);
#188=EDGE_CURVE('',#209,#198,#242,.T.);
#189=EDGE_CURVE('',#203,#207,#243,.T.);
#190=EDGE_CURVE('',#205,#200,#244,.T.);
#191=VERTEX_POINT('',#509);
#192=VERTEX_POINT('',#511);
#193=VERTEX_POINT('',#513);
#194=VERTEX_POINT('',#514);
#195=VERTEX_POINT('',#516);
#196=VERTEX_POINT('',#518);
#197=VERTEX_POINT('',#522);
#198=VERTEX_POINT('',#524);
#199=VERTEX_POINT('',#528);
#200=VERTEX_POINT('',#530);
#201=VERTEX_POINT('',#534);
#202=VERTEX_POINT('',#536);
#203=VERTEX_POINT('',#537);
#204=VERTEX_POINT('',#542);
#205=VERTEX_POINT('',#544);
#206=VERTEX_POINT('',#545);
#207=VERTEX_POINT('',#547);
#208=VERTEX_POINT('',#549);
#209=VERTEX_POINT('',#553);
#210=VERTEX_POINT('',#554);
#211=VERTEX_POINT('',#559);
#212=VERTEX_POINT('',#560);
#213=VERTEX_POINT('',#565);
#214=VERTEX_POINT('',#567);
#215=VERTEX_POINT('',#569);
#216=VERTEX_POINT('',#570);
#217=CIRCLE('',#344,2.7);
#218=CIRCLE('',#345,2.7);
#219=CIRCLE('',#346,6.45);
#220=CIRCLE('',#348,15.05);
#221=CIRCLE('',#349,15.05);
#222=CIRCLE('',#351,0.1);
#223=CIRCLE('',#352,0.1);
#224=CIRCLE('',#354,2.7);
#225=CIRCLE('',#355,6.45);
#226=CIRCLE('',#357,2.7);
#227=CIRCLE('',#358,4.85);
#228=CIRCLE('',#360,1.69999999999999);
#229=CIRCLE('',#361,1.69999999999999);
#230=CIRCLE('',#363,13.45);
#231=CIRCLE('',#364,13.45);
#232=CIRCLE('',#366,2.7);
#233=CIRCLE('',#367,2.7);
#234=CIRCLE('',#368,4.85);
#235=CIRCLE('',#373,1.6);
#236=CIRCLE('',#374,1.6);
#237=CIRCLE('',#376,1.6);
#238=CIRCLE('',#378,1.6);
#239=CIRCLE('',#380,1.6);
#240=CIRCLE('',#382,1.6);
#241=CIRCLE('',#384,1.6);
#242=CIRCLE('',#386,1.6);
#243=CIRCLE('',#388,1.6);
#244=CIRCLE('',#390,1.6);
#245=EDGE_LOOP('',(#65));
#246=EDGE_LOOP('',(#66));
#247=EDGE_LOOP('',(#67,#68,#69,#70));
#248=EDGE_LOOP('',(#71,#72,#73,#74));
#249=EDGE_LOOP('',(#75,#76,#77,#78));
#250=EDGE_LOOP('',(#79));
#251=EDGE_LOOP('',(#80,#81,#82,#83));
#252=EDGE_LOOP('',(#84));
#253=EDGE_LOOP('',(#85,#86,#87,#88));
#254=EDGE_LOOP('',(#89,#90,#91,#92));
#255=EDGE_LOOP('',(#93,#94,#95,#96));
#256=EDGE_LOOP('',(#97));
#257=EDGE_LOOP('',(#98));
#258=EDGE_LOOP('',(#99,#100,#101,#102));
#259=EDGE_LOOP('',(#103));
#260=EDGE_LOOP('',(#104));
#261=EDGE_LOOP('',(#105));
#262=EDGE_LOOP('',(#106));
#263=EDGE_LOOP('',(#107));
#264=EDGE_LOOP('',(#108));
#265=EDGE_LOOP('',(#109,#110,#111,#112));
#266=EDGE_LOOP('',(#113,#114,#115,#116));
#267=EDGE_LOOP('',(#117,#118,#119,#120));
#268=EDGE_LOOP('',(#121,#122,#123,#124));
#269=EDGE_LOOP('',(#125,#126,#127,#128));
#270=EDGE_LOOP('',(#129,#130,#131,#132));
#271=EDGE_LOOP('',(#133,#134,#135,#136));
#272=EDGE_LOOP('',(#137,#138,#139,#140));
#273=EDGE_LOOP('',(#141,#142,#143,#144));
#274=EDGE_LOOP('',(#145,#146,#147,#148));
#275=FACE_BOUND('',#245,.T.);
#276=FACE_BOUND('',#246,.T.);
#277=FACE_BOUND('',#247,.T.);
#278=FACE_BOUND('',#248,.T.);
#279=FACE_BOUND('',#249,.T.);
#280=FACE_BOUND('',#250,.T.);
#281=FACE_BOUND('',#251,.T.);
#282=FACE_BOUND('',#252,.T.);
#283=FACE_BOUND('',#253,.T.);
#284=FACE_BOUND('',#254,.T.);
#285=FACE_BOUND('',#255,.T.);
#286=FACE_BOUND('',#256,.T.);
#287=FACE_BOUND('',#257,.T.);
#288=FACE_BOUND('',#258,.T.);
#289=FACE_BOUND('',#259,.T.);
#290=FACE_BOUND('',#260,.T.);
#291=FACE_BOUND('',#261,.T.);
#292=FACE_BOUND('',#262,.T.);
#293=FACE_BOUND('',#263,.T.);
#294=FACE_BOUND('',#264,.T.);
#295=FACE_BOUND('',#265,.T.);
#296=FACE_BOUND('',#266,.T.);
#297=FACE_BOUND('',#267,.T.);
#298=FACE_BOUND('',#268,.T.);
#299=FACE_BOUND('',#269,.T.);
#300=FACE_BOUND('',#270,.T.);
#301=FACE_BOUND('',#271,.T.);
#302=FACE_BOUND('',#272,.T.);
#303=FACE_BOUND('',#273,.T.);
#304=FACE_BOUND('',#274,.T.);
#305=PLANE('',#343);
#306=PLANE('',#353);
#307=PLANE('',#356);
#308=PLANE('',#365);
#309=ADVANCED_FACE('',(#275,#276,#277),#305,.F.);
#310=ADVANCED_FACE('',(#278),#26,.T.);
#311=ADVANCED_FACE('',(#279),#27,.F.);
#312=ADVANCED_FACE('',(#280,#281),#306,.F.);
#313=ADVANCED_FACE('',(#282,#283),#307,.F.);
#314=ADVANCED_FACE('',(#284),#28,.T.);
#315=ADVANCED_FACE('',(#285),#29,.F.);
#316=ADVANCED_FACE('',(#286,#287,#288),#308,.F.);
#317=ADVANCED_FACE('',(#289,#290),#30,.F.);
#318=ADVANCED_FACE('',(#291,#292),#31,.F.);
#319=ADVANCED_FACE('',(#293,#294),#32,.F.);
#320=ADVANCED_FACE('',(#295),#33,.T.);
#321=ADVANCED_FACE('',(#296),#22,.T.);
#322=ADVANCED_FACE('',(#297),#23,.T.);
#323=ADVANCED_FACE('',(#298),#20,.T.);
#324=ADVANCED_FACE('',(#299),#34,.T.);
#325=ADVANCED_FACE('',(#300),#35,.T.);
#326=ADVANCED_FACE('',(#301),#24,.T.);
#327=ADVANCED_FACE('',(#302),#25,.T.);
#328=ADVANCED_FACE('',(#303),#21,.T.);
#329=ADVANCED_FACE('',(#304),#36,.T.);
#330=CLOSED_SHELL('',(#309,#310,#311,#312,#313,#314,#315,#316,#317,#318,
#319,#320,#321,#322,#323,#324,#325,#326,#327,#328,#329));
#331=STYLED_ITEM('',(#332),#339);
#332=PRESENTATION_STYLE_ASSIGNMENT((#333));
#333=SURFACE_STYLE_USAGE(.BOTH.,#334);
#334=SURFACE_SIDE_STYLE('',(#335));
#335=SURFACE_STYLE_FILL_AREA(#336);
#336=FILL_AREA_STYLE('',(#337));
#337=FILL_AREA_STYLE_COLOUR('',#338);
#338=COLOUR_RGB('',0.645180702209473,0.678915679454803,0.699999988079071);
#339=MANIFOLD_SOLID_BREP('',#330);
#340=SHAPE_DEFINITION_REPRESENTATION(#602,#341);
#341=SHAPE_REPRESENTATION('500918500',(#342),#597);
#342=AXIS2_PLACEMENT_3D('',#506,#392,#393);
#343=AXIS2_PLACEMENT_3D('',#507,#394,#395);
#344=AXIS2_PLACEMENT_3D('',#508,#396,#397);
#345=AXIS2_PLACEMENT_3D('',#510,#398,#399);
#346=AXIS2_PLACEMENT_3D('',#515,#401,#402);
#347=AXIS2_PLACEMENT_3D('',#520,#405,#406);
#348=AXIS2_PLACEMENT_3D('',#521,#407,#408);
#349=AXIS2_PLACEMENT_3D('',#525,#410,#411);
#350=AXIS2_PLACEMENT_3D('',#526,#412,#413);
#351=AXIS2_PLACEMENT_3D('',#527,#414,#415);
#352=AXIS2_PLACEMENT_3D('',#531,#417,#418);
#353=AXIS2_PLACEMENT_3D('',#532,#419,#420);
#354=AXIS2_PLACEMENT_3D('',#533,#421,#422);
#355=AXIS2_PLACEMENT_3D('',#535,#423,#424);
#356=AXIS2_PLACEMENT_3D('',#540,#427,#428);
#357=AXIS2_PLACEMENT_3D('',#541,#429,#430);
#358=AXIS2_PLACEMENT_3D('',#548,#433,#434);
#359=AXIS2_PLACEMENT_3D('',#551,#436,#437);
#360=AXIS2_PLACEMENT_3D('',#555,#439,#440);
#361=AXIS2_PLACEMENT_3D('',#556,#441,#442);
#362=AXIS2_PLACEMENT_3D('',#557,#443,#444);
#363=AXIS2_PLACEMENT_3D('',#561,#446,#447);
#364=AXIS2_PLACEMENT_3D('',#562,#448,#449);
#365=AXIS2_PLACEMENT_3D('',#563,#450,#451);
#366=AXIS2_PLACEMENT_3D('',#564,#452,#453);
#367=AXIS2_PLACEMENT_3D('',#566,#454,#455);
#368=AXIS2_PLACEMENT_3D('',#568,#456,#457);
#369=AXIS2_PLACEMENT_3D('',#573,#460,#461);
#370=AXIS2_PLACEMENT_3D('',#574,#462,#463);
#371=AXIS2_PLACEMENT_3D('',#575,#464,#465);
#372=AXIS2_PLACEMENT_3D('',#576,#466,#467);
#373=AXIS2_PLACEMENT_3D('',#577,#468,#469);
#374=AXIS2_PLACEMENT_3D('',#578,#470,#471);
#375=AXIS2_PLACEMENT_3D('',#579,#472,#473);
#376=AXIS2_PLACEMENT_3D('',#580,#474,#475);
#377=AXIS2_PLACEMENT_3D('',#581,#476,#477);
#378=AXIS2_PLACEMENT_3D('',#582,#478,#479);
#379=AXIS2_PLACEMENT_3D('',#583,#480,#481);
#380=AXIS2_PLACEMENT_3D('',#584,#482,#483);
#381=AXIS2_PLACEMENT_3D('',#585,#484,#485);
#382=AXIS2_PLACEMENT_3D('',#586,#486,#487);
#383=AXIS2_PLACEMENT_3D('',#587,#488,#489);
#384=AXIS2_PLACEMENT_3D('',#588,#490,#491);
#385=AXIS2_PLACEMENT_3D('',#589,#492,#493);
#386=AXIS2_PLACEMENT_3D('',#590,#494,#495);
#387=AXIS2_PLACEMENT_3D('',#591,#496,#497);
#388=AXIS2_PLACEMENT_3D('',#592,#498,#499);
#389=AXIS2_PLACEMENT_3D('',#593,#500,#501);
#390=AXIS2_PLACEMENT_3D('',#594,#502,#503);
#391=AXIS2_PLACEMENT_3D('',#595,#504,#505);
#392=DIRECTION('',(0.,0.,1.));
#393=DIRECTION('',(1.,0.,0.));
#394=DIRECTION('',(0.,0.,1.));
#395=DIRECTION('',(1.,0.,0.));
#396=DIRECTION('',(0.,0.,1.));
#397=DIRECTION('',(1.,0.,0.));
#398=DIRECTION('',(0.,0.,1.));
#399=DIRECTION('',(1.,0.,0.));
#400=DIRECTION('',(1.,0.,0.));
#401=DIRECTION('',(0.,0.,1.));
#402=DIRECTION('',(1.,0.,0.));
#403=DIRECTION('',(1.,0.,0.));
#404=DIRECTION('',(0.,1.,0.));
#405=DIRECTION('',(0.,1.,0.));
#406=DIRECTION('',(0.,0.,1.));
#407=DIRECTION('',(0.,-1.,0.));
#408=DIRECTION('',(0.,0.,-1.));
#409=DIRECTION('',(0.,1.,0.));
#410=DIRECTION('',(0.,-1.,0.));
#411=DIRECTION('',(0.,0.,-1.));
#412=DIRECTION('',(0.,1.,0.));
#413=DIRECTION('',(0.,0.,1.));
#414=DIRECTION('',(0.,1.,0.));
#415=DIRECTION('',(-1.,0.,0.));
#416=DIRECTION('',(0.,1.,0.));
#417=DIRECTION('',(0.,1.,0.));
#418=DIRECTION('',(-1.,0.,0.));
#419=DIRECTION('',(-0.330480939532194,0.,-0.943812666055038));
#420=DIRECTION('',(-0.943812666055038,0.,0.330480939532194));
#421=DIRECTION('',(0.330480939532194,0.,0.943812666055038));
#422=DIRECTION('',(0.,1.,0.));
#423=DIRECTION('',(-0.330480939532194,0.,-0.943812666055038));
#424=DIRECTION('',(-0.943812666055038,0.,0.330480939532194));
#425=DIRECTION('',(-0.943812666055038,0.,0.330480939532194));
#426=DIRECTION('',(-0.943812666055038,0.,0.330480939532194));
#427=DIRECTION('',(0.330480939532194,0.,0.943812666055038));
#428=DIRECTION('',(0.943812666055038,0.,-0.330480939532194));
#429=DIRECTION('',(0.330480939532194,0.,0.943812666055038));
#430=DIRECTION('',(0.943812666055038,0.,-0.330480939532194));
#431=DIRECTION('',(0.,1.,0.));
#432=DIRECTION('',(0.943812666055038,0.,-0.330480939532194));
#433=DIRECTION('',(0.330480939532194,0.,0.943812666055038));
#434=DIRECTION('',(0.943812666055038,0.,-0.330480939532194));
#435=DIRECTION('',(0.943812666055038,0.,-0.330480939532194));
#436=DIRECTION('',(0.,1.,0.));
#437=DIRECTION('',(0.,0.,1.));
#438=DIRECTION('',(0.,1.,0.));
#439=DIRECTION('',(0.,-1.,0.));
#440=DIRECTION('',(0.,0.,-1.));
#441=DIRECTION('',(0.,-1.,0.));
#442=DIRECTION('',(0.,0.,-1.));
#443=DIRECTION('',(0.,1.,0.));
#444=DIRECTION('',(0.,0.,1.));
#445=DIRECTION('',(0.,1.,0.));
#446=DIRECTION('',(0.,-1.,0.));
#447=DIRECTION('',(0.,0.,-1.));
#448=DIRECTION('',(0.,-1.,0.));
#449=DIRECTION('',(0.,0.,-1.));
#450=DIRECTION('',(1.20270387812421E-16,0.,-1.));
#451=DIRECTION('',(-1.,0.,-1.20270387812421E-16));
#452=DIRECTION('',(9.32647030095058E-18,0.,1.));
#453=DIRECTION('',(1.,0.,-9.32647030095058E-18));
#454=DIRECTION('',(9.32647030095058E-18,0.,1.));
#455=DIRECTION('',(1.,0.,-9.32647030095058E-18));
#456=DIRECTION('',(1.20270387812421E-16,0.,-1.));
#457=DIRECTION('',(-1.,0.,-1.20270387812421E-16));
#458=DIRECTION('',(-1.,0.,-1.20270387812421E-16));
#459=DIRECTION('',(-1.,0.,-1.20270387812421E-16));
#460=DIRECTION('',(0.330480939532194,0.,0.943812666055038));
#461=DIRECTION('',(0.943812666055038,0.,-0.330480939532194));
#462=DIRECTION('',(9.32647030095058E-18,0.,1.));
#463=DIRECTION('',(1.,0.,-9.32647030095058E-18));
#464=DIRECTION('',(9.32647030095058E-18,0.,1.));
#465=DIRECTION('',(1.,0.,-9.32647030095058E-18));
#466=DIRECTION('',(-1.,0.,-1.20270387812421E-16));
#467=DIRECTION('',(-1.20270387812421E-16,0.,1.));
#468=DIRECTION('',(-1.,0.,0.));
#469=DIRECTION('',(0.,0.,1.));
#470=DIRECTION('',(1.,0.,1.83697019872103E-16));
#471=DIRECTION('',(1.83697019872103E-16,0.,-1.));
#472=DIRECTION('',(0.,-1.,0.));
#473=DIRECTION('',(0.,0.,-1.));
#474=DIRECTION('',(0.522680960896419,0.,-0.852528364992272));
#475=DIRECTION('',(-0.852528364992272,0.,-0.522680960896419));
#476=DIRECTION('',(1.20270387812421E-16,0.,-1.));
#477=DIRECTION('',(-1.,0.,-1.20270387812421E-16));
#478=DIRECTION('',(1.,0.,0.));
#479=DIRECTION('',(0.,0.,-1.));
#480=DIRECTION('',(0.,-1.,0.));
#481=DIRECTION('',(0.,0.,-1.));
#482=DIRECTION('',(-0.943812666055038,0.,0.330480939532194));
#483=DIRECTION('',(0.330480939532194,0.,0.943812666055038));
#484=DIRECTION('',(1.,0.,1.20270387812421E-16));
#485=DIRECTION('',(1.20270387812421E-16,0.,-1.));
#486=DIRECTION('',(1.,6.34266320596815E-17,1.20270387812421E-16));
#487=DIRECTION('',(1.20270387812421E-16,0.,-1.));
#488=DIRECTION('',(0.943812666055038,0.,-0.330480939532194));
#489=DIRECTION('',(-0.330480939532194,0.,-0.943812666055038));
#490=DIRECTION('',(-0.943812666055038,0.,0.330480939532195));
#491=DIRECTION('',(0.330480939532195,0.,0.943812666055037));
#492=DIRECTION('',(0.,-1.,0.));
#493=DIRECTION('',(0.,0.,-1.));
#494=DIRECTION('',(0.522680960896419,-5.66691833320709E-16,-0.852528364992272));
#495=DIRECTION('',(-0.852528364992272,0.,-0.522680960896419));
#496=DIRECTION('',(0.330480939532194,0.,0.943812666055038));
#497=DIRECTION('',(0.943812666055038,0.,-0.330480939532194));
#498=DIRECTION('',(0.943812666055038,0.,-0.330480939532194));
#499=DIRECTION('',(-0.330480939532194,0.,-0.943812666055038));
#500=DIRECTION('',(0.,-1.,0.));
#501=DIRECTION('',(0.,0.,-1.));
#502=DIRECTION('',(-0.943812666055038,1.79154076302928E-16,0.330480939532194));
#503=DIRECTION('',(0.330480939532194,0.,0.943812666055038));
#504=DIRECTION('',(-0.943812666055038,0.,0.330480939532194));
#505=DIRECTION('',(0.330480939532194,0.,0.943812666055038));
#506=CARTESIAN_POINT('',(0.,0.,0.));
#507=CARTESIAN_POINT('',(-30.65,-6.45,0.));
#508=CARTESIAN_POINT('',(-15.1,1.02870331128378E-15,0.));
#509=CARTESIAN_POINT('',(-12.4,1.02870331128378E-15,0.));
#510=CARTESIAN_POINT('',(-23.5,-9.18485099360514E-16,0.));
#511=CARTESIAN_POINT('',(-20.8,-9.18485099360514E-16,0.));
#512=CARTESIAN_POINT('',(-30.65,-6.45,0.));
#513=CARTESIAN_POINT('',(-24.2,-6.45,0.));
#514=CARTESIAN_POINT('',(0.,-6.45,0.));
#515=CARTESIAN_POINT('',(-24.2,0.,0.));
#516=CARTESIAN_POINT('',(-24.2,6.45,0.));
#517=CARTESIAN_POINT('',(-30.65,6.45,0.));
#518=CARTESIAN_POINT('',(0.,6.45,0.));
#519=CARTESIAN_POINT('',(0.,-6.45,0.));
#520=CARTESIAN_POINT('',(0.,-6.45,15.05));
#521=CARTESIAN_POINT('',(0.,6.45,15.05));
#522=CARTESIAN_POINT('',(-12.8305518931337,6.45,7.1836515385089));
#523=CARTESIAN_POINT('',(-12.8305518931337,-6.45,7.1836515385089));
#524=CARTESIAN_POINT('',(-12.8305518931337,-6.45,7.1836515385089));
#525=CARTESIAN_POINT('',(0.,-6.45,15.05));
#526=CARTESIAN_POINT('',(-12.9158047296329,-6.45,7.13138344241925));
#527=CARTESIAN_POINT('',(-12.9158047296329,6.45,7.13138344241925));
#528=CARTESIAN_POINT('',(-12.9488528235861,6.45,7.03700217581374));
#529=CARTESIAN_POINT('',(-12.9488528235861,-6.45,7.03700217581374));
#530=CARTESIAN_POINT('',(-12.9488528235861,-6.45,7.03700217581374));
#531=CARTESIAN_POINT('',(-12.9158047296329,-6.45,7.13138344241925));
#532=CARTESIAN_POINT('',(-12.9488528235861,-6.45,7.03700217581374));
#533=CARTESIAN_POINT('',(-23.372969934455,8.75622461390358E-16,10.6870612823448));
#534=CARTESIAN_POINT('',(-23.372969934455,2.7,10.6870612823448));
#535=CARTESIAN_POINT('',(-24.0336388006935,0.,10.9183979400173));
#536=CARTESIAN_POINT('',(-24.0336388006935,6.45,10.9183979400173));
#537=CARTESIAN_POINT('',(-24.0336388006935,-6.45,10.9183979400173));
#538=CARTESIAN_POINT('',(-12.9488528235861,-6.45,7.03700217581374));
#539=CARTESIAN_POINT('',(-12.9488528235861,6.45,7.03700217581374));
#540=CARTESIAN_POINT('',(-13.4776223268376,-6.45,5.52690191012569));
#541=CARTESIAN_POINT('',(-23.9017394377065,8.75622461390358E-16,9.17696101665677));
#542=CARTESIAN_POINT('',(-21.3534452393579,8.75622461390358E-16,8.28466247991985));
#543=CARTESIAN_POINT('',(-13.4776223268376,-6.45,5.52690191012569));
#544=CARTESIAN_POINT('',(-13.4776223268376,-4.85,5.52690191012569));
#545=CARTESIAN_POINT('',(-13.4776223268376,4.85000000000005,5.52690191012569));
#546=CARTESIAN_POINT('',(-24.562408303945,-4.85,9.4082976743293));
#547=CARTESIAN_POINT('',(-24.562408303945,-4.85,9.40829767432929));
#548=CARTESIAN_POINT('',(-24.562408303945,0.,9.4082976743293));
#549=CARTESIAN_POINT('',(-24.562408303945,4.85,9.4082976743293));
#550=CARTESIAN_POINT('',(-13.4776223268376,4.85,5.52690191012569));
#551=CARTESIAN_POINT('',(-12.9158047296329,-6.45,7.13138344241925));
#552=CARTESIAN_POINT('',(-11.4665065091461,-6.45,8.01994107594316));
#553=CARTESIAN_POINT('',(-11.4665065091461,-4.85,8.01994107594316));
#554=CARTESIAN_POINT('',(-11.4665065091461,4.85,8.01994107594316));
#555=CARTESIAN_POINT('',(-12.9158047296329,-4.85,7.13138344241925));
#556=CARTESIAN_POINT('',(-12.9158047296329,4.85000000000006,7.13138344241925));
#557=CARTESIAN_POINT('',(0.,-6.45,15.05));
#558=CARTESIAN_POINT('',(2.47072491727979E-15,-6.45,1.6));
#559=CARTESIAN_POINT('',(2.47072491727979E-15,-4.85,1.6));
#560=CARTESIAN_POINT('',(2.47072491727979E-15,4.85,1.6));
#561=CARTESIAN_POINT('',(0.,-4.85,15.05));
#562=CARTESIAN_POINT('',(0.,4.85,15.05));
#563=CARTESIAN_POINT('',(-30.65,-6.45,1.6));
#564=CARTESIAN_POINT('',(-15.1,1.02870331128378E-15,1.6));
#565=CARTESIAN_POINT('',(-12.4,1.02870331128378E-15,1.6));
#566=CARTESIAN_POINT('',(-23.5,-9.18485099360514E-16,1.6));
#567=CARTESIAN_POINT('',(-20.8,-9.18485099360514E-16,1.6));
#568=CARTESIAN_POINT('',(-24.2,0.,1.6));
#569=CARTESIAN_POINT('',(-24.2,4.85,1.6));
#570=CARTESIAN_POINT('',(-24.2,-4.85,1.6));
#571=CARTESIAN_POINT('',(2.47072491727979E-15,-4.85,1.6));
#572=CARTESIAN_POINT('',(-30.65,4.85,1.6));
#573=CARTESIAN_POINT('',(-41.9532596649212,8.75622461390358E-16,-42.3759468639329));
#574=CARTESIAN_POINT('',(-23.5,-9.18485099360514E-16,-54.6219707943434));
#575=CARTESIAN_POINT('',(-15.1,1.02870331128378E-15,-54.6219707943434));
#576=CARTESIAN_POINT('',(-30.65,4.85,-3.68628738645072E-15));
#577=CARTESIAN_POINT('',(-24.2,4.85,-3.03576608295941E-15));
#578=CARTESIAN_POINT('',(2.76464014907515E-15,4.85,1.54074395550979E-30));
#579=CARTESIAN_POINT('',(0.,4.85,15.05));
#580=CARTESIAN_POINT('',(-12.8305518931337,4.85,7.18365153850889));
#581=CARTESIAN_POINT('',(-24.2,0.,-2.81892564846231E-15));
#582=CARTESIAN_POINT('',(-24.2,-4.85,-3.03576608295941E-15));
#583=CARTESIAN_POINT('',(-12.9158047296329,4.85,7.13138344241925));
#584=CARTESIAN_POINT('',(-12.9488528235861,4.85,7.03700217581375));
#585=CARTESIAN_POINT('',(1.81006933657694E-15,-4.85,0.));
#586=CARTESIAN_POINT('',(2.66315753777966E-15,-4.85,-2.16840434497101E-16));
#587=CARTESIAN_POINT('',(-12.9488528235861,4.85,7.03700217581375));
#588=CARTESIAN_POINT('',(-24.0336388006935,4.85,10.9183979400174));
#589=CARTESIAN_POINT('',(0.,-4.85,15.05));
#590=CARTESIAN_POINT('',(-12.8305518931337,-4.85,7.18365153850889));
#591=CARTESIAN_POINT('',(-24.0336388006935,0.,10.9183979400174));
#592=CARTESIAN_POINT('',(-24.0336388006935,-4.85,10.9183979400174));
#593=CARTESIAN_POINT('',(-12.9158047296329,-4.85,7.13138344241925));
#594=CARTESIAN_POINT('',(-12.9488528235861,-4.85,7.03700217581375));
#595=CARTESIAN_POINT('',(-3.91359424519517,-4.85,3.87325914576542));
#596=MECHANICAL_DESIGN_GEOMETRIC_PRESENTATION_REPRESENTATION('',(#331),
#597);
#597=(
GEOMETRIC_REPRESENTATION_CONTEXT(3)
GLOBAL_UNCERTAINTY_ASSIGNED_CONTEXT((#598))
GLOBAL_UNIT_ASSIGNED_CONTEXT((#601,#600,#599))
REPRESENTATION_CONTEXT('500918500','TOP_LEVEL_ASSEMBLY_PART')
);
#598=UNCERTAINTY_MEASURE_WITH_UNIT(LENGTH_MEASURE(0.005),#601,
'DISTANCE_ACCURACY_VALUE','Maximum Tolerance applied to model');
#599=(
NAMED_UNIT(*)
SI_UNIT($,.STERADIAN.)
SOLID_ANGLE_UNIT()
);
#600=(
NAMED_UNIT(*)
PLANE_ANGLE_UNIT()
SI_UNIT($,.RADIAN.)
);
#601=(
LENGTH_UNIT()
NAMED_UNIT(*)
SI_UNIT(.MILLI.,.METRE.)
);
#602=PRODUCT_DEFINITION_SHAPE('','',#603);
#603=PRODUCT_DEFINITION('','',#605,#604);
#604=PRODUCT_DEFINITION_CONTEXT('',#611,'design');
#605=PRODUCT_DEFINITION_FORMATION_WITH_SPECIFIED_SOURCE('','',#607,
 .NOT_KNOWN.);
#606=PRODUCT_RELATED_PRODUCT_CATEGORY('','',(#607));
#607=PRODUCT('500918500','500918500','500918500',(#609));
#608=PRODUCT_CATEGORY('','');
#609=PRODUCT_CONTEXT('',#611,'mechanical');
#610=APPLICATION_PROTOCOL_DEFINITION('international standard',
'automotive_design',2010,#611);
#611=APPLICATION_CONTEXT(
'core data for automotive mechanical design processes');
ENDSEC;
END-ISO-10303-21;
