ISO-10303-21;
HEADER;
FILE_DESCRIPTION( ( 'Unknown' ), '1' );
FILE_NAME( 'I:/User_Groups_Only/17_EMC_Product_&_Development/Article_Master/eiCan/Assembly/AsSMSE/Master_Data/01_CAD_drawing/1_Drawing/9771xxx360/9771060360/Released_Data/9771060360.stp', 'Unknown', ( 'Unknown' ), ( 'Unknown' ), 'PSStep 16.0.42', 'Unknown', '  ' );
FILE_SCHEMA( ( 'AUTOMOTIVE_DESIGN { 1 0 10303 214 1 1 1 1 }' ) );
ENDSEC;
DATA;
#1 = MECHANICAL_DESIGN_GEOMETRIC_PRESENTATION_REPRESENTATION( ' ', ( #10, #11, #12, #13, #14, #15, #16, #17, #18, #19, #20, #21 ), #6 );
#2 = PRODUCT_DEFINITION_CONTEXT( '', #22, 'design' );
#3 = APPLICATION_PROTOCOL_DEFINITION( 'international standard', 'automotive_design', 2001, #22 );
#4 = PRODUCT_CATEGORY_RELATIONSHIP( 'NONE', 'NONE', #23, #24 );
#5 = SHAPE_DEFINITION_REPRESENTATION( #25, #26 );
#6 =  ( GEOMETRIC_REPRESENTATION_CONTEXT( 3 )GLOBAL_UNCERTAINTY_ASSIGNED_CONTEXT( ( #29 ) )GLOBAL_UNIT_ASSIGNED_CONTEXT( ( #31, #32, #33 ) )REPRESENTATION_CONTEXT( 'NONE', 'WORKSPACE' ) );
#10 = STYLED_ITEM( '', ( #35 ), #36 );
#11 = STYLED_ITEM( '', ( #37 ), #38 );
#12 = STYLED_ITEM( '', ( #39 ), #40 );
#13 = STYLED_ITEM( '', ( #41 ), #42 );
#14 = STYLED_ITEM( '', ( #43 ), #44 );
#15 = STYLED_ITEM( '', ( #45 ), #46 );
#16 = STYLED_ITEM( '', ( #47 ), #48 );
#17 = STYLED_ITEM( '', ( #49 ), #50 );
#18 = STYLED_ITEM( '', ( #51 ), #52 );
#19 = STYLED_ITEM( '', ( #53 ), #54 );
#20 = STYLED_ITEM( '', ( #55 ), #56 );
#21 = STYLED_ITEM( '', ( #57 ), #58 );
#22 = APPLICATION_CONTEXT( 'core data for automotive mechanical design processes' );
#23 = PRODUCT_CATEGORY( 'part', 'NONE' );
#24 = PRODUCT_RELATED_PRODUCT_CATEGORY( 'detail', ' ', ( #59 ) );
#25 = PRODUCT_DEFINITION_SHAPE( 'NONE', 'NONE', #60 );
#26 = ADVANCED_BREP_SHAPE_REPRESENTATION( '1', ( #61, #62 ), #6 );
#29 = UNCERTAINTY_MEASURE_WITH_UNIT( LENGTH_MEASURE( 0.00100000000000000 ), #31, '', '' );
#31 =  ( CONVERSION_BASED_UNIT( 'MILLIMETRE', #65 )LENGTH_UNIT(  )NAMED_UNIT( #68 ) );
#32 =  ( NAMED_UNIT( #70 )PLANE_ANGLE_UNIT(  )SI_UNIT( $, .RADIAN. ) );
#33 =  ( NAMED_UNIT( #70 )SI_UNIT( $, .STERADIAN. )SOLID_ANGLE_UNIT(  ) );
#35 = PRESENTATION_STYLE_ASSIGNMENT( ( #76 ) );
#36 = ADVANCED_FACE( '', ( #77 ), #78, .T. );
#37 = PRESENTATION_STYLE_ASSIGNMENT( ( #79 ) );
#38 = ADVANCED_FACE( '', ( #80, #81 ), #82, .T. );
#39 = PRESENTATION_STYLE_ASSIGNMENT( ( #83 ) );
#40 = ADVANCED_FACE( '', ( #84, #85 ), #86, .T. );
#41 = PRESENTATION_STYLE_ASSIGNMENT( ( #87 ) );
#42 = ADVANCED_FACE( '', ( #88 ), #89, .T. );
#43 = PRESENTATION_STYLE_ASSIGNMENT( ( #90 ) );
#44 = ADVANCED_FACE( '', ( #91, #92 ), #93, .T. );
#45 = PRESENTATION_STYLE_ASSIGNMENT( ( #94 ) );
#46 = ADVANCED_FACE( '', ( #95, #96 ), #97, .T. );
#47 = PRESENTATION_STYLE_ASSIGNMENT( ( #98 ) );
#48 = ADVANCED_FACE( '', ( #99, #100 ), #101, .T. );
#49 = PRESENTATION_STYLE_ASSIGNMENT( ( #102 ) );
#50 = ADVANCED_FACE( '', ( #103, #104 ), #105, .T. );
#51 = PRESENTATION_STYLE_ASSIGNMENT( ( #106 ) );
#52 = ADVANCED_FACE( '', ( #107, #108 ), #109, .T. );
#53 = PRESENTATION_STYLE_ASSIGNMENT( ( #110 ) );
#54 = ADVANCED_FACE( '', ( #111, #112 ), #113, .F. );
#55 = PRESENTATION_STYLE_ASSIGNMENT( ( #114 ) );
#56 = ADVANCED_FACE( '', ( #115, #116 ), #117, .F. );
#57 = PRESENTATION_STYLE_ASSIGNMENT( ( #118 ) );
#58 = ADVANCED_FACE( '', ( #119, #120 ), #121, .T. );
#59 = PRODUCT( '1', '1', 'PART-1-DESC', ( #122 ) );
#60 = PRODUCT_DEFINITION( 'NONE', 'NONE', #123, #2 );
#61 = MANIFOLD_SOLID_BREP( '1', #124 );
#62 = AXIS2_PLACEMENT_3D( '', #125, #126, #127 );
#65 = LENGTH_MEASURE_WITH_UNIT( LENGTH_MEASURE( 1.00000000000000 ), #128 );
#68 = DIMENSIONAL_EXPONENTS( 1.00000000000000, 0.000000000000000, 0.000000000000000, 0.000000000000000, 0.000000000000000, 0.000000000000000, 0.000000000000000 );
#70 = DIMENSIONAL_EXPONENTS( 0.000000000000000, 0.000000000000000, 0.000000000000000, 0.000000000000000, 0.000000000000000, 0.000000000000000, 0.000000000000000 );
#76 = SURFACE_STYLE_USAGE( .BOTH., #129 );
#77 = FACE_OUTER_BOUND( '', #130, .T. );
#78 = PLANE( '', #131 );
#79 = SURFACE_STYLE_USAGE( .BOTH., #132 );
#80 = FACE_OUTER_BOUND( '', #133, .T. );
#81 = FACE_OUTER_BOUND( '', #134, .T. );
#82 = CYLINDRICAL_SURFACE( '', #135, 1.10000000000005 );
#83 = SURFACE_STYLE_USAGE( .BOTH., #136 );
#84 = FACE_OUTER_BOUND( '', #137, .T. );
#85 = FACE_OUTER_BOUND( '', #138, .T. );
#86 = CYLINDRICAL_SURFACE( '', #139, 0.400000000000005 );
#87 = SURFACE_STYLE_USAGE( .BOTH., #140 );
#88 = FACE_OUTER_BOUND( '', #141, .T. );
#89 = PLANE( '', #142 );
#90 = SURFACE_STYLE_USAGE( .BOTH., #143 );
#91 = FACE_OUTER_BOUND( '', #144, .T. );
#92 = FACE_BOUND( '', #145, .T. );
#93 = PLANE( '', #146 );
#94 = SURFACE_STYLE_USAGE( .BOTH., #147 );
#95 = FACE_OUTER_BOUND( '', #148, .T. );
#96 = FACE_BOUND( '', #149, .T. );
#97 = CONICAL_SURFACE( '', #150, 1.12655601659756, 0.521204783494657 );
#98 = SURFACE_STYLE_USAGE( .BOTH., #151 );
#99 = FACE_BOUND( '', #152, .T. );
#100 = FACE_OUTER_BOUND( '', #153, .T. );
#101 = CONICAL_SURFACE( '', #154, 1.50000000000003, 0.785398163397448 );
#102 = SURFACE_STYLE_USAGE( .BOTH., #155 );
#103 = FACE_OUTER_BOUND( '', #156, .T. );
#104 = FACE_OUTER_BOUND( '', #157, .T. );
#105 = CYLINDRICAL_SURFACE( '', #158, 1.50000000000003 );
#106 = SURFACE_STYLE_USAGE( .BOTH., #159 );
#107 = FACE_BOUND( '', #160, .T. );
#108 = FACE_OUTER_BOUND( '', #161, .T. );
#109 = PLANE( '', #162 );
#110 = SURFACE_STYLE_USAGE( .BOTH., #163 );
#111 = FACE_OUTER_BOUND( '', #164, .T. );
#112 = FACE_OUTER_BOUND( '', #165, .T. );
#113 = TOROIDAL_SURFACE( '', #166, 1.30000000000005, 0.200000000000000 );
#114 = SURFACE_STYLE_USAGE( .BOTH., #167 );
#115 = FACE_OUTER_BOUND( '', #168, .T. );
#116 = FACE_OUTER_BOUND( '', #169, .T. );
#117 = TOROIDAL_SURFACE( '', #170, 1.30000000000005, 0.200000000000000 );
#118 = SURFACE_STYLE_USAGE( .BOTH., #171 );
#119 = FACE_OUTER_BOUND( '', #172, .T. );
#120 = FACE_OUTER_BOUND( '', #173, .T. );
#121 = CYLINDRICAL_SURFACE( '', #174, 3.00000000000000 );
#122 = PRODUCT_CONTEXT( '', #22, 'mechanical' );
#123 = PRODUCT_DEFINITION_FORMATION_WITH_SPECIFIED_SOURCE( ' ', 'NONE', #59, .NOT_KNOWN. );
#124 = CLOSED_SHELL( '', ( #50, #48, #42, #44, #58, #52, #36, #54, #38, #40, #56, #46 ) );
#125 = CARTESIAN_POINT( '', ( 0.000000000000000, 0.000000000000000, 0.000000000000000 ) );
#126 = DIRECTION( '', ( 0.000000000000000, 0.000000000000000, 1.00000000000000 ) );
#127 = DIRECTION( '', ( 1.00000000000000, 0.000000000000000, 0.000000000000000 ) );
#128 =  ( LENGTH_UNIT(  )NAMED_UNIT( #68 )SI_UNIT( .MILLI., .METRE. ) );
#129 = SURFACE_SIDE_STYLE( '', ( #176 ) );
#130 = EDGE_LOOP( '', ( #177 ) );
#131 = AXIS2_PLACEMENT_3D( '', #178, #179, #180 );
#132 = SURFACE_SIDE_STYLE( '', ( #181 ) );
#133 = EDGE_LOOP( '', ( #182 ) );
#134 = EDGE_LOOP( '', ( #183 ) );
#135 = AXIS2_PLACEMENT_3D( '', #184, #185, #186 );
#136 = SURFACE_SIDE_STYLE( '', ( #187 ) );
#137 = EDGE_LOOP( '', ( #188 ) );
#138 = EDGE_LOOP( '', ( #189 ) );
#139 = AXIS2_PLACEMENT_3D( '', #190, #191, #192 );
#140 = SURFACE_SIDE_STYLE( '', ( #193 ) );
#141 = EDGE_LOOP( '', ( #194 ) );
#142 = AXIS2_PLACEMENT_3D( '', #195, #196, #197 );
#143 = SURFACE_SIDE_STYLE( '', ( #198 ) );
#144 = EDGE_LOOP( '', ( #199 ) );
#145 = EDGE_LOOP( '', ( #200 ) );
#146 = AXIS2_PLACEMENT_3D( '', #201, #202, #203 );
#147 = SURFACE_SIDE_STYLE( '', ( #204 ) );
#148 = EDGE_LOOP( '', ( #205 ) );
#149 = EDGE_LOOP( '', ( #206 ) );
#150 = AXIS2_PLACEMENT_3D( '', #207, #208, #209 );
#151 = SURFACE_SIDE_STYLE( '', ( #210 ) );
#152 = EDGE_LOOP( '', ( #211 ) );
#153 = EDGE_LOOP( '', ( #212 ) );
#154 = AXIS2_PLACEMENT_3D( '', #213, #214, #215 );
#155 = SURFACE_SIDE_STYLE( '', ( #216 ) );
#156 = EDGE_LOOP( '', ( #217 ) );
#157 = EDGE_LOOP( '', ( #218 ) );
#158 = AXIS2_PLACEMENT_3D( '', #219, #220, #221 );
#159 = SURFACE_SIDE_STYLE( '', ( #222 ) );
#160 = EDGE_LOOP( '', ( #223 ) );
#161 = EDGE_LOOP( '', ( #224 ) );
#162 = AXIS2_PLACEMENT_3D( '', #225, #226, #227 );
#163 = SURFACE_SIDE_STYLE( '', ( #228 ) );
#164 = EDGE_LOOP( '', ( #229 ) );
#165 = EDGE_LOOP( '', ( #230 ) );
#166 = AXIS2_PLACEMENT_3D( '', #231, #232, #233 );
#167 = SURFACE_SIDE_STYLE( '', ( #234 ) );
#168 = EDGE_LOOP( '', ( #235 ) );
#169 = EDGE_LOOP( '', ( #236 ) );
#170 = AXIS2_PLACEMENT_3D( '', #237, #238, #239 );
#171 = SURFACE_SIDE_STYLE( '', ( #240 ) );
#172 = EDGE_LOOP( '', ( #241 ) );
#173 = EDGE_LOOP( '', ( #242 ) );
#174 = AXIS2_PLACEMENT_3D( '', #243, #244, #245 );
#176 = SURFACE_STYLE_FILL_AREA( #246 );
#177 = ORIENTED_EDGE( '', *, *, #247, .T. );
#178 = CARTESIAN_POINT( '', ( -0.400000000000000, -1.50000000000007, 0.000000000000000 ) );
#179 = DIRECTION( '', ( 6.03382078600632E-016, -1.00000000000000, 0.000000000000000 ) );
#180 = DIRECTION( '', ( 1.00000000000000, 6.03382078600632E-016, 0.000000000000000 ) );
#181 = SURFACE_STYLE_FILL_AREA( #248 );
#182 = ORIENTED_EDGE( '', *, *, #249, .T. );
#183 = ORIENTED_EDGE( '', *, *, #250, .F. );
#184 = CARTESIAN_POINT( '', ( -3.67381906146713E-015, -60.0000000000000, 0.000000000000000 ) );
#185 = DIRECTION( '', ( 6.12303176911189E-017, 1.00000000000000, 6.12303176911189E-017 ) );
#186 = DIRECTION( '', ( 0.000000000000000, 6.12303176911189E-017, -1.00000000000000 ) );
#187 = SURFACE_STYLE_FILL_AREA( #251 );
#188 = ORIENTED_EDGE( '', *, *, #252, .T. );
#189 = ORIENTED_EDGE( '', *, *, #247, .F. );
#190 = CARTESIAN_POINT( '', ( 6.93889390390723E-015, -0.500000000000000, 0.000000000000000 ) );
#191 = DIRECTION( '', ( -6.03382078600632E-016, 1.00000000000000, -0.000000000000000 ) );
#192 = DIRECTION( '', ( 1.00000000000000, 6.03382078600632E-016, 0.000000000000000 ) );
#193 = SURFACE_STYLE_FILL_AREA( #253 );
#194 = ORIENTED_EDGE( '', *, *, #254, .T. );
#195 = CARTESIAN_POINT( '', ( -1.50000000000000, 11.0000000000000, 0.000000000000000 ) );
#196 = DIRECTION( '', ( -6.03382078600632E-016, 1.00000000000000, 0.000000000000000 ) );
#197 = DIRECTION( '', ( -1.00000000000000, -6.03382078600632E-016, 0.000000000000000 ) );
#198 = SURFACE_STYLE_FILL_AREA( #255 );
#199 = ORIENTED_EDGE( '', *, *, #256, .T. );
#200 = ORIENTED_EDGE( '', *, *, #252, .F. );
#201 = CARTESIAN_POINT( '', ( -3.00000000000000, -1.00000000000007, 0.000000000000000 ) );
#202 = DIRECTION( '', ( 6.03382078600632E-016, -1.00000000000000, 0.000000000000000 ) );
#203 = DIRECTION( '', ( 1.00000000000000, 6.03382078600632E-016, 0.000000000000000 ) );
#204 = SURFACE_STYLE_FILL_AREA( #257 );
#205 = ORIENTED_EDGE( '', *, *, #258, .T. );
#206 = ORIENTED_EDGE( '', *, *, #259, .F. );
#207 = CARTESIAN_POINT( '', ( 3.42864372299435E-016, 5.59958506224059, 4.01668343376657E-015 ) );
#208 = DIRECTION( '', ( 6.12303176911189E-017, 1.00000000000000, 6.12303176911189E-017 ) );
#209 = DIRECTION( '', ( 0.000000000000000, -6.12303176911189E-017, 1.00000000000000 ) );
#210 = SURFACE_STYLE_FILL_AREA( #260 );
#211 = ORIENTED_EDGE( '', *, *, #254, .F. );
#212 = ORIENTED_EDGE( '', *, *, #261, .F. );
#213 = CARTESIAN_POINT( '', ( 1.20676415720126E-016, 10.8000000000000, 0.000000000000000 ) );
#214 = DIRECTION( '', ( 6.03382078600635E-016, -1.00000000000000, 0.000000000000000 ) );
#215 = DIRECTION( '', ( 1.00000000000000, 6.03382078600635E-016, 0.000000000000000 ) );
#216 = SURFACE_STYLE_FILL_AREA( #262 );
#217 = ORIENTED_EDGE( '', *, *, #261, .T. );
#218 = ORIENTED_EDGE( '', *, *, #258, .F. );
#219 = CARTESIAN_POINT( '', ( 6.93889390390723E-015, -0.500000000000000, 0.000000000000000 ) );
#220 = DIRECTION( '', ( -6.03382078600632E-016, 1.00000000000000, -0.000000000000000 ) );
#221 = DIRECTION( '', ( 1.00000000000000, 6.03382078600632E-016, 0.000000000000000 ) );
#222 = SURFACE_STYLE_FILL_AREA( #263 );
#223 = ORIENTED_EDGE( '', *, *, #264, .T. );
#224 = ORIENTED_EDGE( '', *, *, #265, .F. );
#225 = CARTESIAN_POINT( '', ( -3.00000000000000, 4.99999999999994, 0.000000000000000 ) );
#226 = DIRECTION( '', ( -6.03382078600632E-016, 1.00000000000000, 0.000000000000000 ) );
#227 = DIRECTION( '', ( -1.00000000000000, -6.03382078600632E-016, 0.000000000000000 ) );
#228 = SURFACE_STYLE_FILL_AREA( #266 );
#229 = ORIENTED_EDGE( '', *, *, #250, .T. );
#230 = ORIENTED_EDGE( '', *, *, #264, .F. );
#231 = CARTESIAN_POINT( '', ( 3.18397651993814E-016, 5.19999999999993, 3.90312782094781E-015 ) );
#232 = DIRECTION( '', ( -6.12303176911189E-017, -1.00000000000000, -6.12303176911189E-017 ) );
#233 = DIRECTION( '', ( 0.000000000000000, 6.12303176911189E-017, -1.00000000000000 ) );
#234 = SURFACE_STYLE_FILL_AREA( #267 );
#235 = ORIENTED_EDGE( '', *, *, #259, .T. );
#236 = ORIENTED_EDGE( '', *, *, #249, .F. );
#237 = CARTESIAN_POINT( '', ( 3.36766747301149E-016, 5.49999999999993, 3.90312782094781E-015 ) );
#238 = DIRECTION( '', ( -6.12303176911189E-017, -1.00000000000000, -6.12303176911189E-017 ) );
#239 = DIRECTION( '', ( 0.000000000000000, 6.12303176911189E-017, -1.00000000000000 ) );
#240 = SURFACE_STYLE_FILL_AREA( #268 );
#241 = ORIENTED_EDGE( '', *, *, #265, .T. );
#242 = ORIENTED_EDGE( '', *, *, #256, .F. );
#243 = CARTESIAN_POINT( '', ( 6.93889390390723E-015, -0.500000000000000, 0.000000000000000 ) );
#244 = DIRECTION( '', ( -6.03382078600632E-016, 1.00000000000000, -0.000000000000000 ) );
#245 = DIRECTION( '', ( 1.00000000000000, 6.03382078600632E-016, 0.000000000000000 ) );
#246 = FILL_AREA_STYLE( '', ( #269 ) );
#247 = EDGE_CURVE( '', #270, #270, #271, .T. );
#248 = FILL_AREA_STYLE( '', ( #272 ) );
#249 = EDGE_CURVE( '', #273, #273, #274, .T. );
#250 = EDGE_CURVE( '', #275, #275, #276, .T. );
#251 = FILL_AREA_STYLE( '', ( #277 ) );
#252 = EDGE_CURVE( '', #278, #278, #279, .T. );
#253 = FILL_AREA_STYLE( '', ( #280 ) );
#254 = EDGE_CURVE( '', #281, #281, #282, .T. );
#255 = FILL_AREA_STYLE( '', ( #283 ) );
#256 = EDGE_CURVE( '', #284, #284, #285, .T. );
#257 = FILL_AREA_STYLE( '', ( #286 ) );
#258 = EDGE_CURVE( '', #287, #287, #288, .T. );
#259 = EDGE_CURVE( '', #289, #289, #290, .T. );
#260 = FILL_AREA_STYLE( '', ( #291 ) );
#261 = EDGE_CURVE( '', #292, #292, #293, .F. );
#262 = FILL_AREA_STYLE( '', ( #294 ) );
#263 = FILL_AREA_STYLE( '', ( #295 ) );
#264 = EDGE_CURVE( '', #296, #296, #297, .T. );
#265 = EDGE_CURVE( '', #298, #298, #299, .T. );
#266 = FILL_AREA_STYLE( '', ( #300 ) );
#267 = FILL_AREA_STYLE( '', ( #301 ) );
#268 = FILL_AREA_STYLE( '', ( #302 ) );
#269 = FILL_AREA_STYLE_COLOUR( '', #303 );
#270 = VERTEX_POINT( '', #304 );
#271 = CIRCLE( '', #305, 0.400000000000005 );
#272 = FILL_AREA_STYLE_COLOUR( '', #306 );
#273 = VERTEX_POINT( '', #307 );
#274 = CIRCLE( '', #308, 1.10000000000005 );
#275 = VERTEX_POINT( '', #309 );
#276 = CIRCLE( '', #310, 1.10000000000005 );
#277 = FILL_AREA_STYLE_COLOUR( '', #311 );
#278 = VERTEX_POINT( '', #312 );
#279 = CIRCLE( '', #313, 0.400000000000005 );
#280 = FILL_AREA_STYLE_COLOUR( '', #314 );
#281 = VERTEX_POINT( '', #315 );
#282 = CIRCLE( '', #316, 1.30000000000003 );
#283 = FILL_AREA_STYLE_COLOUR( '', #317 );
#284 = VERTEX_POINT( '', #318 );
#285 = CIRCLE( '', #319, 3.00000000000000 );
#286 = FILL_AREA_STYLE_COLOUR( '', #320 );
#287 = VERTEX_POINT( '', #321 );
#288 = CIRCLE( '', #322, 1.50000000000004 );
#289 = VERTEX_POINT( '', #323 );
#290 = CIRCLE( '', #324, 1.12655601659756 );
#291 = FILL_AREA_STYLE_COLOUR( '', #325 );
#292 = VERTEX_POINT( '', #326 );
#293 = CIRCLE( '', #327, 1.50000000000003 );
#294 = FILL_AREA_STYLE_COLOUR( '', #328 );
#295 = FILL_AREA_STYLE_COLOUR( '', #329 );
#296 = VERTEX_POINT( '', #330 );
#297 = CIRCLE( '', #331, 1.30000000000007 );
#298 = VERTEX_POINT( '', #332 );
#299 = CIRCLE( '', #333, 3.00000000000000 );
#300 = FILL_AREA_STYLE_COLOUR( '', #334 );
#301 = FILL_AREA_STYLE_COLOUR( '', #335 );
#302 = FILL_AREA_STYLE_COLOUR( '', #336 );
#303 = COLOUR_RGB( '', 0.643137276172638, 0.678431391716003, 0.698039233684540 );
#304 = CARTESIAN_POINT( '', ( 0.400000000000013, -1.50000000000007, 0.000000000000000 ) );
#305 = AXIS2_PLACEMENT_3D( '', #337, #338, #339 );
#306 = COLOUR_RGB( '', 0.643137276172638, 0.678431391716003, 0.698039233684540 );
#307 = CARTESIAN_POINT( '', ( 3.36766747301149E-016, 5.49999999999992, -1.10000000000005 ) );
#308 = AXIS2_PLACEMENT_3D( '', #340, #341, #342 );
#309 = CARTESIAN_POINT( '', ( 3.18397651993814E-016, 5.19999999999993, -1.10000000000005 ) );
#310 = AXIS2_PLACEMENT_3D( '', #343, #344, #345 );
#311 = COLOUR_RGB( '', 0.643137276172638, 0.678431391716003, 0.698039233684540 );
#312 = CARTESIAN_POINT( '', ( 0.400000000000012, -1.00000000000007, 0.000000000000000 ) );
#313 = AXIS2_PLACEMENT_3D( '', #346, #347, #348 );
#314 = COLOUR_RGB( '', 0.643137276172638, 0.678431391716003, 0.698039233684540 );
#315 = CARTESIAN_POINT( '', ( -1.30000000000003, 11.0000000000000, 0.000000000000000 ) );
#316 = AXIS2_PLACEMENT_3D( '', #349, #350, #351 );
#317 = COLOUR_RGB( '', 0.643137276172638, 0.678431391716003, 0.698039233684540 );
#318 = CARTESIAN_POINT( '', ( 3.00000000000001, -1.00000000000007, 0.000000000000000 ) );
#319 = AXIS2_PLACEMENT_3D( '', #352, #353, #354 );
#320 = COLOUR_RGB( '', 0.643137276172638, 0.678431391716003, 0.698039233684540 );
#321 = CARTESIAN_POINT( '', ( 3.82689485569490E-016, 6.25000000000000, -1.50000000000004 ) );
#322 = AXIS2_PLACEMENT_3D( '', #355, #356, #357 );
#323 = CARTESIAN_POINT( '', ( 3.42864372299435E-016, 5.59958506224059, -1.12655601659756 ) );
#324 = AXIS2_PLACEMENT_3D( '', #358, #359, #360 );
#325 = COLOUR_RGB( '', 0.643137276172638, 0.678431391716003, 0.698039233684540 );
#326 = CARTESIAN_POINT( '', ( -1.50000000000003, 10.8000000000000, 0.000000000000000 ) );
#327 = AXIS2_PLACEMENT_3D( '', #361, #362, #363 );
#328 = COLOUR_RGB( '', 0.639215707778931, 0.666666686534882, 0.686274528503418 );
#329 = COLOUR_RGB( '', 0.643137276172638, 0.678431391716003, 0.698039233684540 );
#330 = CARTESIAN_POINT( '', ( 3.06151588455589E-016, 4.99999999999992, -1.30000000000007 ) );
#331 = AXIS2_PLACEMENT_3D( '', #364, #365, #366 );
#332 = CARTESIAN_POINT( '', ( 3.00000000000000, 4.99999999999993, 0.000000000000000 ) );
#333 = AXIS2_PLACEMENT_3D( '', #367, #368, #369 );
#334 = COLOUR_RGB( '', 0.643137276172638, 0.678431391716003, 0.698039233684540 );
#335 = COLOUR_RGB( '', 0.643137276172638, 0.678431391716003, 0.698039233684540 );
#336 = COLOUR_RGB( '', 0.643137276172638, 0.678431391716003, 0.698039233684540 );
#337 = CARTESIAN_POINT( '', ( 7.54227598250790E-015, -1.50000000000007, 0.000000000000000 ) );
#338 = DIRECTION( '', ( 6.03382078600632E-016, -1.00000000000000, 0.000000000000000 ) );
#339 = DIRECTION( '', ( 1.00000000000000, 6.03382078600632E-016, 0.000000000000000 ) );
#340 = CARTESIAN_POINT( '', ( 3.36766747301149E-016, 5.49999999999992, 4.01058580876828E-015 ) );
#341 = DIRECTION( '', ( -6.12303176911189E-017, -1.00000000000000, -6.12303176911189E-017 ) );
#342 = DIRECTION( '', ( 0.000000000000000, 6.12303176911189E-017, -1.00000000000000 ) );
#343 = CARTESIAN_POINT( '', ( 3.18397651993814E-016, 5.19999999999993, 3.99221671346094E-015 ) );
#344 = DIRECTION( '', ( -6.12303176911189E-017, -1.00000000000000, -6.12303176911189E-017 ) );
#345 = DIRECTION( '', ( 0.000000000000000, 6.12303176911189E-017, -1.00000000000000 ) );
#346 = CARTESIAN_POINT( '', ( 7.24058494320759E-015, -1.00000000000007, 0.000000000000000 ) );
#347 = DIRECTION( '', ( 6.03382078600632E-016, -1.00000000000000, 0.000000000000000 ) );
#348 = DIRECTION( '', ( 1.00000000000000, 6.03382078600632E-016, 0.000000000000000 ) );
#349 = CARTESIAN_POINT( '', ( -1.07241349573450E-030, 11.0000000000000, 0.000000000000000 ) );
#350 = DIRECTION( '', ( -6.03382078600632E-016, 1.00000000000000, 0.000000000000000 ) );
#351 = DIRECTION( '', ( -1.00000000000000, -6.03382078600632E-016, 0.000000000000000 ) );
#352 = CARTESIAN_POINT( '', ( 7.24058494320759E-015, -1.00000000000007, 0.000000000000000 ) );
#353 = DIRECTION( '', ( 6.03382078600632E-016, -1.00000000000000, 0.000000000000000 ) );
#354 = DIRECTION( '', ( 1.00000000000000, 6.03382078600632E-016, 0.000000000000000 ) );
#355 = CARTESIAN_POINT( '', ( 3.82689485569490E-016, 6.25000000000000, 4.05650854703662E-015 ) );
#356 = DIRECTION( '', ( -6.12303176911189E-017, -1.00000000000000, -6.12303176911189E-017 ) );
#357 = DIRECTION( '', ( 0.000000000000000, 6.12303176911189E-017, -1.00000000000000 ) );
#358 = CARTESIAN_POINT( '', ( 3.42864372299435E-016, 5.59958506224059, 4.01668343376657E-015 ) );
#359 = DIRECTION( '', ( -6.12303176911189E-017, -1.00000000000000, -6.12303176911189E-017 ) );
#360 = DIRECTION( '', ( 0.000000000000000, 6.12303176911189E-017, -1.00000000000000 ) );
#361 = CARTESIAN_POINT( '', ( 1.20676415720126E-016, 10.8000000000000, 0.000000000000000 ) );
#362 = DIRECTION( '', ( -6.03382078600635E-016, 1.00000000000000, 0.000000000000000 ) );
#363 = DIRECTION( '', ( -1.00000000000000, -6.03382078600635E-016, 0.000000000000000 ) );
#364 = CARTESIAN_POINT( '', ( 3.06151588455589E-016, 4.99999999999992, 3.97997064992272E-015 ) );
#365 = DIRECTION( '', ( -6.12303176911189E-017, -1.00000000000000, -6.12303176911189E-017 ) );
#366 = DIRECTION( '', ( 0.000000000000000, 6.12303176911189E-017, -1.00000000000000 ) );
#367 = CARTESIAN_POINT( '', ( 3.62029247160379E-015, 4.99999999999993, 0.000000000000000 ) );
#368 = DIRECTION( '', ( 6.03382078600632E-016, -1.00000000000000, 0.000000000000000 ) );
#369 = DIRECTION( '', ( 1.00000000000000, 6.03382078600632E-016, 0.000000000000000 ) );
ENDSEC;
END-ISO-10303-21;
